Song name
# A B C D E F G H I J K L M N O P Q R S T U V W X Y Z

Harold Faltermeyer - Top Gun Anthem tab

This be my first tab. Just got sick of all the wrong versions of this =|
havent done the solo cause im going to costa but il do it later or something =]
Any corrections, congratulations, hate mail ot if you just need more friends on 
msn: st.jakkyboy@hotmail.co.uk
enjoy.

|----------------------------------------------------------|
|---886565-----5-56-5-5---------886565-----5-56-5-5-(8)----|
|--5------77-57-7----5-7b------5------77-57-7----5---------|
|----------------------------------------------------------|
|----------------------------------------------------------|
|----------------------------------------------------------|

|------------------------------------------------
|----151513121312---------12--121312--12---------
|--12------------1414-1214--14------12--14b------
|------------------------------------------------
|------------------------------------------------
|------------------------------------------------

|------------------------------------------------|
|----151513121312---------12--121312--12-(15)----|
|--12------------1414-1214--14------12-----------|
|------------------------------------------------|
|------------------------------------------------|
|------------------------------------------------|

|------------------------------------------------------------|
|---886565-----5-56-5-5---------886565-----5-56-5-5----------|
|--5------77-57-7----5-7b------5------77-57-7----5--(7)-(5)~-|
|------------------------------------------------------------|
|------------------------------------------------------------|
|------------------------------------------------------------|

pretty sweet huh?
Tap to rate this tab
# A B C D E F G H I J K L M N O P Q R S T U V W X Y Z