Song name
# A B C D E F G H I J K L M N O P Q R S T U V W X Y Z

Harold Faltermeyer - Axel F tab

Just incase you dont know what 10/ is its a slide from 10 to 8
|-------------------------------------------------------13------------------|
|---------------11----------13---------14--13--------13----13---------------|
|10--13--10--10----10----10----10--10---------13--10-----------10/8--8--12--|
|---------------------13----------------------------------------------10----|
|---------------------------------------------------------------------------|
|---------------------------------------------------------------------------|
____________________________________________________________________________
|---------------------------------------------------------------------------|
|---------------------------------------------------------------------------|
|--10-----------------------------------------------------------------------|
|---------------------------------------------------------------------------|
|---------------------------------------------------------------------------|
|---------------------------------------------------------------------------|
Tap to rate this tab
 
# A B C D E F G H I J K L M N O P Q R S T U V W X Y Z