Song name
# A B C D E F G H I J K L M N O P Q R S T U V W X Y Z

Harold Faltermeyer - Top Gun Anthem tab

e|---------------------------------------------------------------------------|
B|-----8-8-6-5-6-5----------5----5-6--5---5----------------------------------|
G|--5--------------7-7--5-7----7--------5---7--------------------------------|
D|---------------------------------------------------------------------------|
A|---------------------------------------------------------------------------|
E|---------------------------------------------------------------------------|

e|---------------------------------------------------------------------------|
B|-----8-8-6-5-6-5----------5----5-6--5---5--8-------------------------------|
G|--5--------------7-7--5-7----7--------5------------------------------------|
D|---------------------------------------------------------------------------|
A|---------------------------------------------------------------------------|
E|---------------------------------------------------------------------------|

e|---------------------------------------------------------------------------|
B|-----14-14-12-11-12-11-----------------11------11-12--11---11--------------|
G|--11--------------------13-13----11-13-----13-----------11----13-----------|
D|---------------------------------------------------------------------------|
A|---------------------------------------------------------------------------|
E|---------------------------------------------------------------------------|

e|---------------------------------------------------------------------------|
B|-----14-14-12-11-12-11-----------------11------11-12--11---11--14----------|
G|--11--------------------13-13----11-13-----13-----------11-----------------|
D|---------------------------------------------------------------------------|
A|---------------------------------------------------------------------------|
E|---------------------------------------------------------------------------|
Tap to rate this tab
 
# A B C D E F G H I J K L M N O P Q R S T U V W X Y Z