Song name
# A B C D E F G H I J K L M N O P Q R S T U V W X Y Z

Harold Faltermeyer - Axel F Theme tab

----------------------------------------------------------------------------
			 Axel F Theme - Harold Faltermeyer
----------------------------------------------------------------------------
Tabbed by: SickorSaneSF
Email: ps2champ1204@charter.net

Tuning: Standard


Right so there's 2 ways you can play this song. They both sound exactly the same but i 
the second one much easier... but to each his own.

Way 1:
e|-1-4---1-1-6-1----1-8---1-1-9-8-4---1-8-13--1-1-----3-1------------------|
B|---------------4--------------------------------4-1----------------------|
G|-------------------------------------------------------------------------|
D|-------------------------------------------------------------------------|
A|-------------------------------------------------------------------------|
E|-------------------------------------------------------------------------|

Way 2:
e|----4-------6--------8-------9-8------8-13-------------------------------|
B|--6-----6-6---6-4--6-----6-6-----9--6-------6-6-----8-6------------------|
G|------------------------------------------------8-5----------------------|
D|-------------------------------------------------------------------------|
A|-------------------------------------------------------------------------|
E|-------------------------------------------------------------------------|


Email with corrections, questions, praise, etc.




| /  slide up
| \  slide down
| h  hammer-on
| p  pull-off
| ~  vibrato
| +  harmonic
| x  Mute note
============================================================================
Tap to rate this tab
 
# A B C D E F G H I J K L M N O P Q R S T U V W X Y Z