Song name
# A B C D E F G H I J K L M N O P Q R S T U V W X Y Z

Harper Ben - Walk Away tab

Intro/Verse:

|-------------------------------------------------------|e
|----------3--3--------3--3--------3--3----------3--3---|b
|----------0--0--------0--0--------0--0----------0--0---|g
|-------------------------------------------------------|d
|-------------------------------------------------------|a
|----3--3--------2--2--------0--0---------0h2-2---------|e



Chorus:

|-------------------------------------------------------|e
|----------3--3--------3--3---------3--3---------3--3---|b
|----------0--0--------0--0---------0--0---------0--0---|g
|-------------------------------------------------------|d
|----3--3--------2--2---------0--0----------------------|a
|------------------------------------------2--2---------|e



|-------------------------------------------------------|e
|----------3--3--------3--3---------3--3---------3--3---|b
|----------0--0--------0--0---------0--0---------0--0---|g
|-------------------------------------------------------|d
|----3--3--------2--2---------0--0----------------------|a
|-----------------------------------------0h2-2---------|e


Bridge:


|-------------------------------------------------------|e
|----------1--0--------0--3--------3--3----------3--0---|b
|----------2--0--------0--0--------0--0----------2--0---|g
|----------2--2--------2--2--------0--0-----------------|d
|----0--0-----------------------------------------------|a
|----------------0--0--------3--3----------2--2---------|e

Tap to rate this tab
# A B C D E F G H I J K L M N O P Q R S T U V W X Y Z