Guitaretab - guitar tabs
Song name
# A B C D E F G H I J K L M N O P Q R S T U V W X Y Z

Harry Belafonte - Jump In The Line tab

1rst part of intro
e----5-8---6-6-------|
B--6-----8-----8-6-5-|
G--------------------|
D--------------------| X 1
A--------------------|
E--------------------|
[ Tab from: http://www.guitaretab.com/h/harry-belafonte/154519.html ]
second part of intro
e------5---6---6------|
B--6-6---6---8---5----|
G------------------5--|
D---------------------| X 3
A---------------------|
E---------------------|

or you could play the second part like this whichever sounds better to you:
e------5---6---6------|
B--6-6---8---8---5----|
G------------------5--|
D---------------------| X 3
A---------------------|
E---------------------|
Related for Jump In The Line tab
Advertisement will be closed in 10 seconds