Guitaretab - guitar tabs
Song name
# A B C D E F G H I J K L M N O P Q R S T U V W X Y Z

Harry Belafonte - We Wish You A Merry Christmas tab

Easy song for this time of year
=D
Do like me...sing it to your family on Christmas Eve at midnight and have fun playing 
singing it with your guitar

Tabbed by: Jocelino Rodrigues

E||---------------|-------------------|-----------------|------------|
B||---------------|-------------------|-----------------|------------|
G||---------------|----------0--------|---------------0-|-0--2--0----|
D||---------------|--3----3-----3--2--|--0----0----0----|----------3-|
A||----------3----|-------------------|-----------------|------------|
E||---------------|-------------------|-----------------|------------|


----------------|------------------|------------------|------------|
----------------|------------------|------------------|------------|
----------------|-2----2--3--2--0--|------------------|----0-------|
-2--------------|------------------|--3----0----------|-0-----2-3-|
-------3----3---|------------------|------------3--3--|------------|
----------------|------------------|------------------|------------|


----------------|-----------------|----------------|-----------------|
----------------|-----------------|----------------|-----------------|
----------------|-----------------|----------------|-----0-----------|
----------------|--3----3----2----|--2-----3---2---|--0--------------|
-----------3----|-----------------|----------------|--------0--0--0--|
----------------|-----------------|----------------|-----------------|

[ Tab from: http://www.guitaretab.com/h/harry-belafonte/162921.html ]
----------------|-----------------|----------------|-----------------|
----------------|-----------------|----------------|-----------------|
------0---------|-----------------|----------------|-----------------|
---------2----3-|-----------------|----------------|-----------------|
--2-------------|-----------------|----------------|-----------------|
----------------|-----------------|----------------|-----------------|


---------------|-------------------|-----------------|------------|
---------------|-------------------|-----------------|------------|
---------------|----------0--------|---------------0-|-0--2--0----|
---------------|--3----3-----3--2--|--0----0----0----|----------3-|
----------3----|-------------------|-----------------|------------|
---------------|-------------------|-----------------|------------|


-----------------|-------------------|------------------|------------|
-----------------|-------------------|------------------|------------|
-----------------|--2----2--3--2--0--|------------------|----0-------|
-2---------------|-------------------|--3----0----------|--0----2-3-|
-------3----3----|-------------------|------------3--3--|------------|
-----------------|-------------------|------------------|------------|


-------------------|------------------|------------|
-------------------|------------------|------------|
--2----2--3--2--0--|------------------|----0-------|
-------------------|--3----0----------|--0----2-3-|
-------------------|------------3--3--|------------|
-------------------|------------------|------------|


Lyrics: Repeat them throughout the song
We wish you a Merry Christmas
We wish you a Merry Christmas
We wish you a Merry Christmas and a Happy New Year
Good tidings we bring to you and your kin
Good tidings for Christmas and a Happy New Year.
Related for We Wish You A Merry Christmas tab