Song name
# A B C D E F G H I J K L M N O P Q R S T U V W X Y Z

Harry Belafonte - Jump In De Line tab

Help us improve GuitareTab! Take a short survey!
----------------------------------------------------------------------------
			     JUMP IN DE' LINE
----------------------------------------------------------------------------
                         *****Harry Belafonte
Tabbed by: swisscheese
Tuning: standard
   
e|----5----6---0--|\
B|6-6---8----8----| \
G|---------------5|  >
D|----------------|  > x4
A|----------------| /
E|----------------|/


This is the vocal notes, not the guitar or anything.
e|7--7--7--777----777-5-7----12--12--12--1088--8-6-5----|
B|---------------------------------------------------8-6|
G|------------------------------------------------------|
D|------------------------------------------------------|
A|------------------------------------------------------|
E|------------------------------------------------------|

e|13--13--13---8--13-13--8--13-12-10-8----12--12--12-1088-8-6-5----|
B|--------------------------------------------------------------8-6|
G|-----------------------------------------------------------------|
D|-----------------------------------------------------------------|
A|-----------------------------------------------------------------|
E|-----------------------------------------------------------------|

e|7-7--7-5-1-10-10-1--7-7--7-5-1-3-3|
B|----------------------------------|
G|----------------------------------|
D|----------------------------------|
A|----------------------------------|
E|----------------------------------|


That is all I could figure out.
*****************
| /  slide up   *
| \  slide down *
| h  hammer-on  *
| p  pull-off   *
| ~  vibrato    *
| +  harmonic   *
| x  Mute note  *
=============================================================================
Related for Jump In De Line tab