Song name
# A B C D E F G H I J K L M N O P Q R S T U V W X Y Z

Harry Belafonte - Limbo Song tab

Help us improve GuitareTab! Take a short survey!
E------------------------------------------------------------------------------------|
B------------------------------------------------------------------------------------|
G-------------------3---------3---------3-------------------------------3----3-------|
D-------------5---------5----------5---------------------5----3---3---------------5--|
A----6---6-------------------------------------6----6--------------------------------|
E------------------------------------------------------------------------------------|
X2

E-----------------------------------------------------------------------|
B-----------------------------------------------------------------------|
G------3--------3--------3--------5-----5-------5--------3--------------|
D-----------5--------5--------5-------------3-------3---------3------5--|
A-----------------------------------------------------------------------|
E-----------------------------------------------------------------------|


E----------------------------------------------------------------------------------------|
B----------------------------------------------------------------------------------------|
G-------------------3---------3---------3-----------------------------------3-----3------|
D-------------5---------5----------5---------------------5-----3----3-----------------1--|
A----6---6-------------------------------------6----6------------------------------------|
E----------------------------------------------------------------------------------------|
Related for Limbo Song tab