Song name
# A B C D E F G H I J K L M N O P Q R S T U V W X Y Z

Harry Gregson-williams - Smiling tab

-------------------------------------------------------------------------------
                                              Smile - Harry Gregson-Williams
-------------------------------------------------------------------------------
Tabbed by: American0101


This is featured on the Denzel Washington film, "Man on Fire," (great movie) and more 
recently on the Omega watch commercial. This is the only piano part in the soundtrack 
recording; the string orchestra does most of this again, after the keys cut out.

Since it is around the 12th fret, try playing around with harmonics.

Enjoy!

Tuning: Standard E

e|-----------11--------------------------------------------------------------|
B|-----11-13----13-11----------------------11----------------------------11--|
G|--12----------------12----12-10----12-12-------------------------10-12-----|
D|--------------------------------13----------10----13-12-10-13-13-----------|
A|---------------------------------------------------------------------------|
E|---------------------------------------------------------------------------|

e|-11-10---------------------------------------------------------------------|
B|-------13----11------------------------------------------------------------|
G|----------------12-10------------------------------------------------------|
D|---------------------------------------------------------------------------|
A|---------------------------------------------------------------------------|
E|---------------------------------------------------------------------------|
Tap to rate this tab
 
# A B C D E F G H I J K L M N O P Q R S T U V W X Y Z