Song name
# A B C D E F G H I J K L M N O P Q R S T U V W X Y Z

Harry Mclintock - Big Rock Candy Mountain tab

Intro:

e|---------------------------------------------------------------------------|
B|---------------------------------------------------------------------------|
G|---------------------------------------------------------------------------|
D|-------------------------------------------5-----------------------------5-|
A|-----3-3----------3-3----------3-3--5-5--7------3-3-----3-3---3-3--5-5-7---|
E|---3-----5-3----3-----5-3----3----------------------5-3--------------------|

e|---------------------------------------------------------------------------|
B|---------------------------------------------------------------------------|
G|---------------------------------------------------------------------------|
D|--5-7-7-5---7-7-5---7-7-5--------------------------------------------------|
A|----------7-------7-------7--7-5------7-5--3-3-----3-3-----3-3-5-5-7-3-----|
E|-----------------------------------------------5-3-----5-3-----------------|



Chorus: 

e|---------------------------------------------------------------------------|
B|---------------------------------------------------------------------------|
G|-------------------------5----------5--------------------------------------|
D|----------------5--5-7-7---7-5--7-7---7-5-55--5-7-5-5----------------------|
A|--7-5-3-3-3-5-7----------------------------------------7-5-----------------|
E|---------------------------------------------------------------------------|

e|---------------------------------------------------------------------------|
B|---------------------------------------------------------------------------|
G|---------------------------------------------------------------------------|
D|---------------------------------------------------------------------------|
A|--7-5-3-3-----3-3-----3-3-5-5-7-3------------------------------------------|
E|----------5-3-----5-3------------------------------------------------------|

Tap to rate this tab
# A B C D E F G H I J K L M N O P Q R S T U V W X Y Z