Song name
# A B C D E F G H I J K L M N O P Q R S T U V W X Y Z

Harry Nilsson - How Can I Be Sure Of You tab

How Can I Be Sure Of You
(H. Nilsson)

Intro: C / Cadd9 / C / Cadd9 / C / Cadd9

C-----------G---------------C
The other day a friend of mine said
---------------Fm---------------G#
He said, the sun's not really yellow
--------------G-------------C
He said the sun is really red

C-----------G---------------------C
I said, My friend what do you mean?
----------------Fm-------------G#
You read that in some magazine
--------------------G--------------------C
Next thing you'll say the earth's not green

e ------------------|
b ------------------|
g ------------------|
d ----------0-1-----|
a -- 0-2-3----------|
e 3-----------------|

[notes above]----------E-------E7
How can I be sure of you any more
----------------------------F
In a world that's always changing
--------Bb
Re - arranging
---------F-----------Bb
Always changing, changing

e 3-1-0------|
b ------3-1--|
g -----------|
d -----------|
a -----------|
e -----------|
[landing on intro's C chord]

I said, My friend how do you do
And what you're saying isn't true
Next thing you'll say the earth is blue

He said, My friend you're in a dream
And things are never what they seem
No, things are never what they seem

Repeat chorus (How can I be...)

END
Tap to rate this tab
# A B C D E F G H I J K L M N O P Q R S T U V W X Y Z