Harry Sacksioni - Borgo Migliorini tab

h        = hammer on / pulling of
b (r)    = bend (release)
/ or \   = slide up or down
--               --

e |----------------------|------3-2h3h2---------|--10p9----------------|
B |----3-2-3p2p0---------|----3--------3/10-----|-------10----/12-10-7-|
G |--2-----------2-------|--2-------------------|----------11----------|
D |0---------------------|0---------------------|0---------------------|
A |----------------------|----------------------|----------------------|
D |----------------------|----------------------|----------------------|

--------------------|----0-------------------|
7b(r)-5-3-2-/5\-----|0--3---3-2--3-3(---3---)|
---------------2---2|0--------2----2(---2---)|
--------------------|0--------2----0(---0---)|
--------------------|------------------------|
--------------------|------------------------|
Tap to rate this tab
 
# A B C D E F G H I J K L M N O P Q R S T U V W X Y Z