Song name
# A B C D E F G H I J K L M N O P Q R S T U V W X Y Z

Harsh H - Challa tab

CHALLA : JAB TAK HAI JAAN

Dm   Am   G   E

E-------------------------------------------------------------------|
B-------------------------------------------------------------------|
G-----------------5------------------------------5------------------|
D------------5--------7--7--7------3----5----7----7--7--7-----------|
A-----5---7-----------------------7---------------------------------|
E-------------------------------------------------------------------|

E-------------------------------------------------------------------|
B-------------------------------------------------------------------|
G-------------------------------------------------------------------|
D--5-----7------9------5------5--------7----------------------------|
A---------------------------8---------8-----------------------------|
E-------------------------------------------------------------------|

This solo is played tow times.

(Dm)Challa ki labh da (F) phire……(C)
(G) Challa ki labh da (Dm)phire
(F) Yaaron oda ghar (C) keda
(G) Lokan ton puchda (Dm) phire

(Am) Challa hansda phire
(F)Challa rounda phire
(G) Challa gali gali rulda phire……(E)

(Am)Challe tu sab da
(F)Challe tera koi nahi
(G)Challa gali gali rul da phire…….(E)

(Dm)Challa ki labh da (F) phire……(C)
(G) Challa ki labh da (Dm)phire
(F) Yaaron oda ghar (C) keda
(G) Lokan ton puchda (Dm) phire

(Dm)Challa ki labh da (F) phire……(C)

Am   Dm  G   E

(Am) Rang satrangi (F) de…….(C) bulbula (G) di boli
(Am) Dhoop de pairi (F)chale, (C)chhavan ni (G) le doli
(Am) Rang satrangi (F) de…….(C) bulbula (G) di boli
(Am) Dhoop de pairi (F)chale, (C)chhavan ni (G) le doli
(Am)Oye kaale kale badalan (F) 'ch chand  labh da
(C) Goongiyan haw ava diyaan(G) waaja su)n da
(Am)Yaaro aase-paase wasda (F) ay yaar mera
(C)Dikhda ni ohdiyaan khusbu(G)aan sunghda

(Dm)Challa ki labh da (F) phire……(C)
(G) Challa ki labh da (Dm)phire
(F) Yaaron oda ghar (C) keda
(G) Lokan ton puchda (Dm) phire

(Am)Naa visa(F)al hoya (C) kadi na judai (G)hoi
(Am)Ishq de (F)qaidi ki naa(C) rihaai (G) hoi
(Am)Lokon sufne 'ch milne(F) da wada usda
(C)Saari saari raat (G)naakh lagdi
(Am) Mere saa vi thode (F)thode ghat aaunde
(C)Meri nabz vi thodi (G)ghat wajdi

(Dm)Challa ki labh da (F) phire……(C)
(G) Challa ki labh da (Dm)phire
(F) Yaaron oda ghar (C) keda
(G) Lokan ton puchda (Dm) phire

(Am) Challa hansda phire
(F)Challa rounda phire
(G) Challa gali gali rulda phire……(E)

(Am)Challe tu sab da
(F)Challe tera koi nahi
(G)Challa gali gali rul da phire…….(E)

(Dm)Challa ki labh da (F) phire……(C)
(G) Challa ki labh da (Dm)phire
(F) Yaaron oda ghar (C) keda
(G) Lokan ton puchda (Dm) phire

Thank you,
HHP
Have a nice day !!

You can tell your favorites songs name and I upload guitar tabs for you.

harsh.patel.71271466@facebook.com
Tap to rate this tab
 
# A B C D E F G H I J K L M N O P Q R S T U V W X Y Z