Harshit Saxena - Hale Dil Acoustic-murder 2 chords

Highlighted       Show chord diagrams
another gr8 song hale dil from murder
2 sung n composed by harshit saxena (fame voice of india) !!!
here is the ACOUSTIC VERSION....

Chords used :
Am (002210)
F (133211) 0r (033211)
C (032010)
G (355433) or (320033)
Em (022000)
E (022100)



INTRO- plucking on Am & C




e  ----------------- |--------------------|--------------------------------|----------------|
a  -0---------------|---3----------------|--------------------------------|-----------------|
d  ---2-------------|------2-------------|-single strum G(320003)---------|-----------------|
g  -------------2---|---------------0----|--------------------------------|-----------------|
b  ----------1------|------------1-------|--------------------------------|--------------3--|
e  --------0--------|----------3---------|---------------------------------|--2-3--2-0------|




e ----------------- |--------------------|----------------------------|-------------|
a -0---------------|---3----------------|----------------------------|--------------|
d ---2-------------|------2-------------|-----strum F (dudud)-------|---------------|
g -------------2---|---------------0----|----------------------------|--------------|
b ----------1------|------------1-------|----------------------------|--------------|
e --------0--------|----------3---------|----------------------------|--------------|



e ----------------- |--------------------|------------------------------------|----------------|
a -0---------------|---3----------------|------------------------------------|-----------------|
d ---2-------------|------2-------------|-single strum on G(320003)----------|-----------------|
g -------------2---|---------------0----|------------------------------------|-----------------|
b ----------1------|------------1-------|------------------------------------|--------------3--|
e --------0--------|----------3---------|------------------------------------|--2-3--2-0-------|





e -----------------------------|-------------------------------------------|
a ----0------2-3--------3-----|--------------------------------------------|
d ---------------- 000--------|-------strum F (dudud)----------------------|
g -----------------------------|-------------------------------------------|
b --------1------------------- |-------------------------------------------|
e -----------------------------|-------------------------------------------|


repeat this pattern of 4 diagrams 2 times..


Hai(Am) kaash, kaash yun (F)hota

Har (G)shaam saath tu (Am)hota

Chup (Am)chaap dil na yun (F)rotaa

Har(G) shaam saath tu (Am)hota


Guzaara ho te(G)re bin gu(F)zaara ab mu(Am)shkil hai la(Em)gta
Nazaara ho te(G)ra hi na(F)zaara ab ha(Am)r din hai la(Em)gta


Intro played again but dis time with strumming on d chords used initially for plucking..

Am
Hale dil tujhko sunaata
G
Dil agar yeh bol paata

Ba(F)khuda tujhko hai chaahta ja(Em)an

Am
Tere sang jo pal bitaata
G
Waqt se main woh maang laata

Ya(F)ad karke muskuraata ha(Em)an


Woho (Am)ho…hohohoho (G)ho..hohohohoho 
(F)ho..hohohoho(Em) (x2 times)




On distortion :

e 5---578---------------------|
a ------------10---9-10--957--| (x2 times)
d ----------------------------|
g ----------------------------|
b ----------------------------|
ó ----------------------------|

 

1st verse-

(Am)Tu meri ra(C)ah ka sit(G)aara

(F)Tere bina hoon main aw(E/Em)aara

(Am)Jab bhi (C)tanhai ne sat(G)aaya

(F)Tujhko besaakhta puk(E/Em)aara

Aa(F) chaahat hai meri la fa(G)naa

Par meri ja(Am)an (C)dil mein hoon rak(E/Em)hta haan


On distortion :

e 5---578------------------------------------------------------------|
a -----------10---9-10--957------------------------------------------|(x2 times)
d -------------------------------------------------------------------|
g -------------------------------------------------------------------|
b -------------------------------------------------------------------|
ó -------------------------------------------------------------------|





2nd verse (same as 1st verse)-

(Am)Khwaabon (C)ka kab tak loon sah(G)ara

(F)Ab toh tu aa bhi ja khud(E/Em)ara

(Am)Meri (C)yeh dono paagal aan(G)khein

(F)Har pal maange tera naza(E/Em)ara

Aa(F) samjaun inko kis ta(G)rah

Inpe me(Am)ra (C)bas nahin chal(E/Em)ta haan


Am
Hale dil tujhko sunaata
G
Dil agar yeh bol paata

Ba(F)khuda tujhko hai chaahta ja(Em)an

Am
Tere sang jo pal bitaata
G
Waqt se main woh maang laata

Ya(F)ad karke muskuraata ha(Em)an


Woho (Am)ho…hohohoho (G)ho..hohohohoho 
(F)ho..hohohoho(Em) (x2 times)



PLS LET ME KNOW IF ANY DOUBTS OR SUGGESTIONS...ENJOYYYYY !!!!!!
Tap to rate this tab
 
# A B C D E F G H I J K L M N O P Q R S T U V W X Y Z