Song name
# A B C D E F G H I J K L M N O P Q R S T U V W X Y Z

Harts - Back To The Shore tab

-------------------------------------------------------------------------------
                           Back To The Shore - Harts
-------------------------------------------------------------------------------
Tabbed by: fobfob
E-mail:

Tuning: Standard

************************************

| /   slide up
| \   slide down
| h   hammer-on
| p   pull-off
| ~   vibrato
| +   harmonic
| x   Mute note
| b   Bend
| pb  Pre-bend
| br  Bend release
| pbr Pre-bend release
| brb Bend release bend

************************************
):00 - 0:37 (Keep repeating)
e|---------------------------------------------------------------------------|
B|---------12-13---10-8-5----------------------------------------------------|
G|--12-12--------------------------------------------------------------------|
D|---------------------------------------------------------------------------|
A|---------------------------------------------------------------------------|
E|---------------------------------------------------------------------------|

0:37 - 0:52
e|--------8------------------------------10-8-8-5----------------------------|
B|--12-12---16-16-17--------------14-14--------------------------------------|
G|---------------------------------------------------------------------------|
D|---------------------------------------------------------------------------|
A|---------------------------------------------------------------------------|
E|---------------------------------------------------------------------------|

0:52 - 1:36
e|---------------------------------------------------------------------------|
B|---------12-13---10-8-5----------------------------------------------------|
G|--12-12--------------------------------------------------------------------|
D|---------------------------------------------------------------------------|
A|---------------------------------------------------------------------------|
E|---------------------------------------------------------------------------|

1:36 - 1:52
e|--------8------------------------------10-8-8-5----------------------------|
B|--12-12---16-16-17--------------14-14--------------------------------------|
G|---------------------------------------------------------------------------|
D|---------------------------------------------------------------------------|
A|---------------------------------------------------------------------------|
E|---------------------------------------------------------------------------|

1:52 - 2:07
e|------8----------------------------------10-8-5----------------------------|
B|---12--16-17------------------------14-------------------------------------|
G|---------------------------------------------------------------------------|
D|---------------------------------------------------------------------------|
A|---------------------------------------------------------------------------|
E|---------------------------------------------------------------------------|

2:07 - 2:22
e|--------8------------------------------10-8-8-5----------------------------|
B|--12-12---16-16-17--------------14-14--------------------------------------|
G|---------------------------------------------------------------------------|
D|---------------------------------------------------------------------------|
A|---------------------------------------------------------------------------|
E|---------------------------------------------------------------------------|

GUITAR 1 ( Repeat)
2:22 - 2:37
e|---------------------------------------------------------------------------|
B|---------12-13---10-8-5----------------------------------------------------|
G|--12-12--------------------------------------------------------------------|
D|---------------------------------------------------------------------------|
A|---------------------------------------------------------------------------|
E|---------------------------------------------------------------------------|


Last Riff of that section
e|---------------------------------------------------------------------------|
B|---------12-13---15-12-13--------------------------------------------------|
G|--12-12--------------------------------------------------------------------|
D|---------------------------------------------------------------------------|
A|---------------------------------------------------------------------------|
E|---------------------------------------------------------------------------|

2:37 - 2:52
e|---------------------------------------------------------------------------|
B|---------------10-12-13----------------------------------------------------|
G|--12-12-14-12--------------------------------------------------------------|
D|---------------------------------------------------------------------------|
A|---------------------------------------------------------------------------|
E|---------------------------------------------------------------------------|


GUITAR 2 
2:22 - 2:52
e|---------------------------------------------------------------------------|
B|---------------------------------------------------------------------------|
G|---------------------------------------------------------------------------|
D|---------------------------------------------------------------------------|
A|--7-9-7-7-3-------------7-9--9-10-9-10-9-10-12-3---------------------------|
E|---------------------------------------------------------------------------|

e|---------------------------------------------------------------------------|
B|---------------------------------------------------------------------------|
G|---------------------------------------------------------------------------|
D|---------------------------------------------------------------------------|
A|--7-9-7-7-3-------------3-3-5-5-7-7-3-3-9-10-12----------------------------|
E|---------------------------------------------------------------------------|

e|---------------------------------------------------------------------------|
B|---------------------------------------------------------------------------|
G|---------------------------------------------------------------------------|
D|---------------------------------------------------------------------------|
A|--5-5-6-5------------------------------------------------------------------|
E|---------------------------------------------------------------------------|

2:52 - 3:30
e|--------8------------------------------10-8-8-5----------------------------|
B|--12-12---16-16-17--------------14-14--------------------------------------|
G|---------------------------------------------------------------------------|
D|---------------------------------------------------------------------------|
A|---------------------------------------------------------------------------|
E|---------------------------------------------------------------------------|

or (whichever sound pretty similar)

e|------8----------------------------------10-8-5----------------------------|
B|---12--16-17------------------------14-------------------------------------|
G|---------------------------------------------------------------------------|
D|---------------------------------------------------------------------------|
A|---------------------------------------------------------------------------|
E|---------------------------------------------------------------------------|

Tap to rate this tab
 
# A B C D E F G H I J K L M N O P Q R S T U V W X Y Z