Haruko - Winter chords

Highlighted       Show chord diagrams
If you don't know Haruko's music you have to listen to it on:

http://www.myspace.com/haruko.music


Capo 3rd fret

C

E --------------------------------------------------------|
A ----1------------1-----------1-----------1--------------|
D ---------0------------0-----------0-----------0---------|
g ------2------------2-----------2-----------2------------|
b --3------------3-----------3-----------3----------------|
e --------------------------------------------------------|

Am

E --------------------------------------------------------|
A ----1------------1-----------1-----------1--------------|
D ---------2------------2-----------2-----------2---------|
g ------2------------2-----------2-----------2------------|
b --0------------0-----------0-----------0----------------|
e --------------------------------------------------------|

G

E --------------------------------------------------------|
A ----0------------0-----------0-----------0--------------|
D ---------0------------0-----------0-----------0---------|
g ------0------------0-----------0-----------0------------|
b --2-----------2------------2----------2-----------------|
e --------------------------------------------------------|

C  Am  (2x)

C		Am
Silence... snow falling
Silence... snow falling

C		  Am
Could you hold my hand?
Or could you my heart?

C
While we

C	   G		Am
Fall like stars from the sky
Hand in hand in the golden light

C	    Am
with open mouths
with open hearts

C Am (2x)

C            Am
Your smiling eyes
Your smiling eyes

C                 Am
Make me feel like home
C			Am
Oh make me feel like I'm home

C
And...

C           G         Am
Snow flakes fall like feathers
Snow flakes fall like feathers

C                 Am
There's a crystal shine
In the candle light

Silence...
Snow falling
Silence...
Snow falling

Could you hold my hand?
Or could you hold my heart?
While we...
Fall like stars from the sky
Hand in hand in the golden light

With open mouths
With open hearts
Tap to rate this tab
 
# A B C D E F G H I J K L M N O P Q R S T U V W X Y Z