Harvard - The Inevitable And I tab

Hey guys, this band is really amazing,
and this album is definitely one of my
favorite of the year.This is the last 
song off the album, i was listening
to it with my guitar n i figured it out
for the most part anyways, the only acoustic
song off the album and the easiest one for 
me to tab out. So check it out!

 Band: Harvard
Album: The Inevitable And I
Song : The Inevitable And I

INTRO
e|---------------------------------------|
B|-----5-5-5-5--5---5-5-5-5--------------|
G|-----5-5-5-5--5---5-5-5-5--------------|
D|------------------------------x2-------|
A|----5-5-5-5--5/3-----------------------|
E|-----------------5-5-6-6---------------|

Do this part while you sing the lyrics

Verse
e|---------------------------------------|
B|-----5-5-5-5--5---5-5-5-5--------------|
G|-----5-5-5-5--5---5-5-5-5--------------|X8 or so
D|---------------------------------------|
A|----5-5-5-5--5/3-----------------------|
E|-----------------5-5-6-6---------------|
...if i tell you a lie....

e|---------------------------------------|
B|-----5-5-5-5--5---5-5-5-5--------------|
G|-----5-5-5-5--5---5-5-5-5--------------|
D|---------------------------------------|
A|----5-5-5-5--5/3-----------------------|
E|-----------------5-5-6-6---------------|

Chorus
e|----------0----------------------------|
B|----------5----------------------------|
G|------5---5----------------------------|
D|-----3----3---3--5---------------------|
A|----5-----5---x--x---------------------|
E|--------------5--6---------------------|
if i lose this bay...ill be the bones...

verse again.
e|---------------------------------------|
B|-----5-5-5-5--5---5-5-5-5--------------|
G|-----5-5-5-5--5---5-5-5-5--------------|
D|---------------------------------------|
A|----5-5-5-5--5/3-----------------------|
E|-----------------5-5-6-6---------------|
OOooo OOOooo OOooooooo


then the chorus once more, and finally the outro
e|------3--------3/5\3-----------|
B|------3--------3/5\3-----------|
G|------4------------------------|x3
D|------3---3--5-----------------|
A|---5--5--1---3-----------------|
E|--3---3------------------------|

e|---3--1---------------------|
B|--------5---6-5-------------|
G|----------------7-----------|
D|----------------------------|
A|----------------------------|
E|----------------------------|
second guitar does that during the outro.

so thats more or less the whole song, listen to the
cd and you'll get it trust me, pretty easy to play and sing
and sounds pretty sexy for the ladies! check it out rate it! add
notes i didnt catch!
w/e!

here are the lyrics

If I tell you a lie, then I'll tell you the truth
I'm gonna travel down with a brilliant moon
Gonna make my way, it's becoming gray
who wants to be a child anyway?
So we traveled through the crowd
Shook hands, took a bow
We traveled through the crowd
Made our way

We took our hands, went to the beach
Made homes out of cardboard sheets
We saw this love, we had it tough
But I had nothing to do with it
Nothing to do with it
I had nothing to do with it
Nothing to do with it

If I lose this bay, I'll be the bones
If I lose this bay, I'll be the bones
If I lose this bay, I'll be the bones
I'll never be this bold again

Saw a man, saw what he took
It was a stack of books and a rusty hook
Asked what he'd learned, where he'd been
He said he'd traveled to and from every land
Saw a million things, shook a million hands
He was breaking bread with an old friend
When he saw it in his eyes
Had nothing to do with it
Nothing to do with it
Had nothing to do with it
Nothing to do with it

If I lose this bay, I'll be the bones
If I lose this bay, I'll be the bones
If I lose this bay, I'll be the bones
I'll never be this bold again

Inevitable and I
Inevitable and I

This is something I have never seen before
Some kind of secret door
There's a man waiting
He keeps the men waiting...
Tap to rate this tab
 
# A B C D E F G H I J K L M N O P Q R S T U V W X Y Z