Song name
# A B C D E F G H I J K L M N O P Q R S T U V W X Y Z

Harvey Danger - Cold Snap tab

-------------------------------------------------------------------------------
                               COLD SNAP - Harvey Danger
-------------------------------------------------------------------------------
Tabbed by: itsonlycapital
Email: itsonlycapital@gmail.com

Tuning: Standard


This tab is based on the version of "Cold Snap" on the Little By Little...
bonus disc.  The parts I've tabbed here are essentially identical to the
version recorded for Dead Sea Scrolls, but there are some minor differences.


Organ Intro/Verse:

   Em7                       A
e|-----------------|-----------------|-----------------|-----------------|
B|-----------------|-----------------|-----------------|-----------------|
G|-----7-----------|-----7---6-------|-----7-----------|-----7---6-------|
D|-----5-----------|-----5-------7---|-----5-----------|-----5-------7---|
A|-7---------------|-7-----------4-5-|-7---------------|-7-----------4-5-|
E|-----------------|-------7-5-------|-----------------|-------7-5-------|



Guitar Solo 1:
                                             (rake)
e|----------------------|---------------------------|
B|----------------------|---------------------------|
G|-11b9----7~~~---------|----------------------9b11-|
D|------------------5b4-|-4~~-----------------x-----|
A|----------------------|-----5/7--5-4/5\4---x------|
E|----------------------|---------------------------|


e|-----------------|-------------------|
B|---------12b10---|---10h8----8/7~~~--|
G|---7-------------|-------------------|
D|-----9-----------|-------------------|
A|-----------------|-------------------|
E|-----------------|-------------------|



Guitar Solo 2:

e|------------------------------|------------------------------|
B|------------------------------|--------------------10---12---|
G|--------------------------7---|-----------7h9/11-------------|
D|----------------------7-9-----|---9---7h9--------------------|
A|----------------5-7/9---------|------------------------------|
E|----------3h5/7---------------|------------------------------|

e|-----------------------------------|------------------------------------|
B|--10-------12---12h10--------------|------------------------------------|
G|-----11---------------11---9/7-9---|--10b9---7---7-9-9/10---9--7--6-----|
D|-----------------------------------|-----------9---------------------9--|
A|-----------------------------------|------------------------------------|
E|-----------------------------------|------------------------------------|

e|----------------------------|----------------7-------|
B|----------------------------|---7----------7---10b11~|
G|----9b10----10--10--9h7-----|---7----9b10------------|
D|--7---------------------9---|------------------------|
A|----------------------------|------------------------|
E|----------------------------|------------------------|

e|---7------------10------12b13--|----12--10------------10-12--10------|
B|~~---10---7---------12---------|------------12--10h12------------12--|
G|-------------------------------|-------------------------------------|
D|-------------------------------|-------------------------------------|
A|-------------------------------|-------------------------------------|
E|-------------------------------|-------------------------------------|

e|---------------------------|------------------------------|
B|---------------------------|------------------------------|
G|-----5h7-9-10--10---9--10--|---9-7-0--------12--11--12----|
D|---------------------------|------------/12---------------|
A|---------------------------|------------------------------|
E|---------------------------|------------------------------| 

e|-----------------------------------|-------------------|
B|-----------------------------------|------7\----9------|
G|-10-9---9b10b9--7-4--7h6-6--7h6-6--|------7\----9---7--|
D|-----------------------------------|-/9----------------|
A|-----------------------------------|-------------------|
E|-----------------------------------|-------------------|

e|-----------------|------------------|-----------------------|
B|-----------------|---------x---9b10-|-----------------------|
G|-----------------|---------x---9----|--7----7----6h7-6------|
D|---9-7-----------|---------x--------|----9------------------|
A|-------------9-5-|-7-------x--------|-----------------------|
E|-----------------|------------------|-----------------------|

e|---------------------------------|----------------------------------|
B|---------------------------------|----------------------------------|
G|-7h6----7h6------9b10----9b10b9--|----------------------------------|
D|------------/9-------------------|-----2-2-2-2-2---2-2b3---2-2b3b2--|
A|---------------------------------|----------------------------------|
E|---------------------------------|----------------------------------|

                               (rake)
e|------------------|------------------5---------|
B|------------------|-------------7b8-----8--5\--|
G|------------------|------------x---------------|
D|--------5--4h5-4--|--------7--x----------------|
A|------------------|----------------------------|
E|------------------|----------------------------|




| /  slide up
| \  slide down
| h  hammer-on
| p  pull-off
| ~  vibrato
| +  harmonic
| x  Mute note
===============================================================================
Tap to rate this tab
# A B C D E F G H I J K L M N O P Q R S T U V W X Y Z