Song name
# A B C D E F G H I J K L M N O P Q R S T U V W X Y Z

Harvey Danger - Meeting The Remarkable Men tab

ok, this sounds right, but i cant guarantee anything: ( and its normal tuning)

Intro/Verse
E|-----------------------------------------------|
B|-----------------------------------------------|
G|-----------------------------------------------|
D|9-9--7--9--7-77-12-12-12-14--14-14   X4(intro--|
A|9-9--7--9--7-77-12-12-12-14--14-14-------------|   X4(verse)
E|7-7--5--7--5-55-10-10-10-12--12-12-------------|


Chorus
E|--------------------------------------------------------|
B|--------------------------------------------------------|
G|--------------------------------------------------------|
D|7-7--7-7-7--7-7-7--7-7-7--7-9-9--9-9-9--9-9-9--9-9-9--9-|
A|7-7--7-7-7--7-7-7--7-7-7--7-9-9--9-9-9--9-9-9--9-9-9--9-|
E|5-5--5-5-5--5-5-5--5-5-5--5-7-7--7-7-7--7-7-7--7-7-7--7-|


Solo 2 come...I'm too lazy to do it now lol
Tap to rate this tab
# A B C D E F G H I J K L M N O P Q R S T U V W X Y Z