Guitaretab - guitar tabs
Song name
# A B C D E F G H I J K L M N O P Q R S T U V W X Y Z

Harvey P J - Big Exit tab

I think this is it. If you disagree or have a suggestion to improve this tab please
let me know.

1)Intro and Verse
e -----------------------------------------------------------------------------|
B ------6-68-68-6-----6-68-68-6-----6-68-68-6-68-68-6-----6-68-68--------------|
G -7-77-7-77-77-77-77-7-77-77-77-77-7-77-77-7-77-77-77-77-7-77-77--------------|
D -5-55-5-55-55-55-55-5-55-55-55-55-5-55-55-5-55-55-55-55-5-55-55--------------|
A -----------------------------------------------------------------------------|
E -----------------------------------------------------------------------------|
  This repetition of chords is what makes up the intro and the verses

2)Chorus
   Baby Baby Ain't it true I'm immortal When I'm with you
e -----------------------------------------------------------------------------|
B -----------------------------------------------------------------------------|
G -7----10---3--------5----7-----10-----3-------------5------------------------|
D -7----10---3--------5----7-----10-----3-------------5------------------------|
A -5----8----1--------3----5-----8------1-------------3------------------------|
E -----------------------------------------------------------------------------|
[ Tab from: http://www.guitaretab.com/h/harvey-p-j/22427.html ]
   I want a pistol In my hand I wanna go to A different land
e -----------------------------------------------------------------------------|
B -----------------------------------------------------------------------------|
G -7--------10-----3-----5----7-------10----3-----------5----------------------|
D -7--------10-----3-----5----7-------10----3-----------5----------------------|
A -5--------8------1-----3----5-------8-----1-----------3----------------------|
E -----------------------------------------------------------------------------|

3)Interlude
  There is a Bass and a Guitar. The Bass just repeats this with rhythm variations:
G -----------|
D -----------|
A -----------|
E -3-5-6-5-3-|

  This is the Guitar:
e ------------------------------------------------------------------------------|
B ----3---3----This is repeated-------------------------------------------------|This is repeated until the
G -2-3-3-2-2-0----four times-----2h3d2-3-3-3-3-3-3-3-song continues. Vary this--|
D ---------------------------------------------------riff by adding a D (third--|
A ------------------------------------------------------------------------------|fret on the B-string) Here
E ---------------------------------------------------and there------------------|
Related for Big Exit tab
Big Exit chords by Harvey P J