Guitaretab - guitar tabs
Song name
# A B C D E F G H I J K L M N O P Q R S T U V W X Y Z
Home / H / Harvey P J / Joe tab

Harvey P J - Joe tab

INTRO

|-|----------|-|-----------|-|-----------|-|-------------------|
|B|----------|B|-----------|B|-----------|B|-------------------|
|A|-4-4-4-4-4|A|-2-2-2-2-4-|A|-5-5-5-5-5-|A|-7-7-7-7-7-7-7-7-7-|
|S|----------|S|-----------|S|-----------|S|-------------------|
|S|----------|S|-----------|S|-----------|S|-------------------|
|-|----------|-|-----------|-|-----------|-|-------------------|

VERSE 


|-7-x-7-x-7-x-7-x-5-x-5-x-5-x-5--|
|-8-x-8-x-8-x-8-x-5-x-5-x-5-x-5--|
|-7-x-7-x-7-x-7-x-5-x-5-x-5-x-5--|
|--------------------------------|
|--------------------------------|
|--------------------------------|

CHORUS
[ Tab from: http://www.guitaretab.com/h/harvey-p-j/7912.html ]
|-10-x-10-x-8--x-8--x-7-x-7-x-5-x-5-x-10-x-10-x-8--x-8--x-7-x-7-|
|-12-x-12-x-10-x-10-x-7-x-7-x-5-x-5-x-12-x-12-x-10-x-10-x-7-x-7-|
|-11-x-11-x-9--x-9--x-7-x-7-x-5-x-5-x-11-x-11-x-9--x-9--x-7-x-7-|
|---------------------------------------------------------------|
|---------------------------------------------------------------|
|---------------------------------------------------------------|

BRIDGE X2

|-2-x-2-x-2-x-2-x-3-x-3-x-3-x-3--|
|-3-x-3-x-3-x-3-x-5-x-5-x-5-x-5--|
|-4-x-4-x-4-x-4-x-4-x-4-x-4-x-4--|
|--------------------------------|
|--------------------------------|
|--------------------------------|

POST BRIDGE

|-12-10-8---12-10-8---15-15-12--15-15-12--|
|-13-12-10--13-12-10--17-15-13--17-15-13--|
|-----------------------------------------|
|-----------------------------------------|
|-----------------------------------------|
|-----------------------------------------|


END WITH

|-2-|
|-3-|
|-4-|
|---|
|---|
|---|


I didnít write the order, but itís easy to learn
Related for Joe tab