Song name
# A B C D E F G H I J K L M N O P Q R S T U V W X Y Z

Hasenscheisse - Schn Wrs tab

This is the whole song. Sometimes the last chords (Bm and Cadd9) are left out or
repeated. Have fun! :)

  G       Cadd9             G           Bm      Em
--3-------0-----0---0-------3-----3-----2-------7-----7-----|
--0---0---3---3---3---3-----0---0---0---3---3---8---8---8---|
----0-------0-----------0-----0-----------4-------9---------|
------------------------------------------------------------|
----------3-----------------------------2-------7-----------|
--3-------------------------3-------------------------------|


D     C           Bm            Cadd9
------------------2-----2-------3-----3------|
7/5---5-3---3-----3---3---3-----3---3---3----|
----------5---5-----4-------4-----5----------|
---------------------------------------------|
5-----3-----------2-------------3------------|
---------------------------------------------|
Tap to rate this tab
 
# A B C D E F G H I J K L M N O P Q R S T U V W X Y Z