Guitaretab - guitar tabs
Song name
# A B C D E F G H I J K L M N O P Q R S T U V W X Y Z

Hass - Ihr Helden tab

		        HASS  Ihr Helden

Intro
E------------------|
H------------------|
G-54--54--54-------|		(3x)
D-547-547-547-7-7~-|
A-327-327-327-7-7~-|
E---5---5---5-5-5~-|

Dann:

E----------------------------------|
H----------------------------------|
G-54--54--54------54------54-------|
D-547-547-547777775477777754777777-|
A-327-327-327777773277777732777777-|
E---5---5---555555--555555--555555-|

Verse1
E-----------------------------------|
H-----------------------------------|
G-54------54------54-------54-------|
D-547777775477777754777777-54777777-|
A-327777773277777732777777-32777777-|
E---555555--555555--555555---555555-|

E------------------|
H------------------|
D-1111111113131313-|
G-1111111113131313-|		(2x)
A--9-9-9-911111111-|
E------------------|

E------------|
H------------|
D-1111111113-|
G-1111111113-|
A--9-9-9-911-|
E------------|

Verse2
E----------------------------------------------------------|
H----------------------------------------------------------|
G-54--54---54-----54------54------54------54------54-------|
D-547-547-547777775477777754777777547777775477777754777777-|
A-327-327-327777773277777732777777327777773277777732777777-|
E---5---5---555555--555555--555555--555555--555555--555555-|

E------------------|
H------------------|
D-1111111113131313-|
G-1111111113131313-|		(2x)
A--9-9-9-911111111-|
E------------------|

E------------|
H------------|
D-1111111113-|
G-1111111113-|
A--9-9-9-911-|
E------------|

Verse3 (gleich wie Verse2)
[ Tab from: http://www.guitaretab.com/h/hass/187855.html ]
Bridge
E--------------------------------------------------------|
H--------------------------------------------------------|
G-54--54--54------54------109------------109-------------|
D-547-547-5477777754777777109121212121212109121212121212-|
A-327-327-3277777732777777-87121212121212-87121212121212-|
E---5---5---555555--555555---101010101010---101010101010-|

E------------------------------------------------|
H------------------------------------------------|
G-54------54------109------------109-------------|
D-5477777754777777109121212121212109121212121212-|
A-3277777732777777-87121212121212-87121212121212-|
E---555555--555555---101010101010---101010101010-|

E------------------|
H------------------|
G------------------|
D-1414141414141414-|
A-1414141414141414-|
E-1212121212121212-|

Verse 4(wie Verse 3 und 2)

Verse5
E-------------------------------------------------------------------|
H-------------------------------------------------------------------|
G-54--54--54------54------54------54------54------54-------54-------|
D-547-547-547777775477777754777777547777775477777754777777-54777777-|
A-327-327-327777773277777732777777327777773277777732777777-32777777-|
E---5---5---555555--555555--555555--555555--555555--555555---555555-|

E------------------|
H------------------|
D-1111111113131313-|
G-1111111113131313-|		(2x)
A--9-9-9-911111111-|
E------------------|

E------------|
H------------|
D-1111111113-|
G-1111111113-|
A--9-9-9-911-|
E------------|

Outro
E----------------------|
H----------------------|
G-54--54--54-----------|
D-547-547-547-7-7~~~~~-|
A-327-327-327-7-7~~~~~-|
E---5---5---5-5-5~~~~~-|