Song name
# A B C D E F G H I J K L M N O P Q R S T U V W X Y Z

Hassisen Kone - Rappiolla tab

Hassisen kone - Rappiolla


Intro

E----------------------------------|
B----------------------------------|
G-----------9-7--------------------|
D--9--9--9--9-7-9--9--9--7---------|
A--7--7--7------7--7--7--5---------|
E----------------------------------|


E----------------------------------|
B----------------------------------|
G----------------------------------|
D-9-9-9-7-9-9-9-7------------------| 2x
A-7-7-7-5-7-7-7-5------------------|
E----------------------------------|
Pm.....   .....


E----------------------------------|
B----------------------------------|
G----------9-7---------------------|
D--9--9--9-9-7-9--9--9--7----------|
A--7--7--7-----7--7--7--5----------|
E----------------------------------|

Verse
E--------------------------------------|
B--------------------------------------|
G-------9-7-------9-7------------------|
D-9-9-9-9-7-9-9-9-9-7-7-7-7-7----------|
A-7-7-7-----7-7-7-----5-5-5-5-9-9-9-9--|
E-----------------------------7-7-7-7--|
pm.....     ......    ....... .......

E--------------------------------------|
B--------------------------------------|
G-------9-7-------9-7------------------|
D-9-9-9-9-7-9-9-9-9-7-7-7-7-7----------|
A-7-7-7-----7-7-7-----5-5-5-5-9-9-9-9--|
E-----------------------------7-7-7-7--|
pm                ....... .......


E----------------------------------|
B----------------------------------|
G----------------------------------|
D-7-7-7-7-9-9-9-9------------------| 2x
A-5-5-5-5-7-7-7-7-7-7-7-7-9-9-9-9--|
E-----------------5-5-5-5-7-7-7-7--|
pm...............................

Prechorus
E----------------------------------|
B----------------------------------|
G----------------------------------|
D------------------9-9-9-9---------|
A-7-7-7-7-9-9-9-9--7-7-7-7-7-7-7-7-|
E-5-5-5-5-7-7-7-7----------5-5-5-5-|
pm.................................

E----------------------------------|
B----------------------------------|
G----------------------------------|
D-7-7-7-7---------9-9-9-9-9-9-9-9--|
A-5-5-5-5-9-9-9-9-7-7-7-7-7-7-7-7--|
E---------7-7-7-7------------------|
pm................................
Chorus
E----------------------------------|
B----------------------------------|
G----------------------------------|
D------------------9-9-9-9---------|
A-7-7-7-7-9-9-9-9--7-7-7-7-7-7-7-7-|
E-5-5-5-5-7-7-7-7----------5-5-5-5-|


E----------------------------------|
B----------------------------------|
G----------------------------------|
D-7-7-7-7---------9-9-9-9-9-9-9-9--|
A-5-5-5-5-9-9-9-9-7-7-7-7-7-7-7-7--|
E---------7-7-7-7------------------|


Solo


E-----------------------------------|
B--------10-10b-10b--7--7h9b9p7-----|
G--9--11------------------------9---|
D-----------------------------------|
A-----------------------------------|
E-----------------------------------|

E-----------------------------------|
B-------10b-10b---12b---------------|
G-9--11---------13-----13p11p9h11p9-|
D-----------------------------------|
A-----------------------------------|
E-----------------------------------|

E------12---------------------------|
B-----------------------------------|
G-11b-------------------------------|
D---------------7-7~-7-------7-7p6--|
A----------7--9--------9-7-9------7-|
E-----------------------------------|

E----------------------------12-------|
B-------------------------------------|
G-------------------------11b---------|
D------7-7--9b--9p7p6---------13p11p9-|
A-7--9-----------------9p7------------|
E-------------------------------------|
Tap to rate this tab
# A B C D E F G H I J K L M N O P Q R S T U V W X Y Z