Song name
# A B C D E F G H I J K L M N O P Q R S T U V W X Y Z

Haste The Day - Fallen tab

Fallen
Haste the day

tuning: cgcfad

intro/verse1
-------------------------------------------------|
-------------------------------------------------|
-------------------------------------------------|
-------------------2h3---------------------------|
------------------------------------------3h5----|
-000000000-3h5-3h5------000000000-3h5-1h3--------|

verse2
-------------------------------------------------|
-------------------------------------------------|
-------------------------------------------------|
-0-0-0-0--0-0-0-0-1--0-0-0-0--0-0-0-1------------|
-0-0-0-0--0-0-0-0-1--0-0-0-0--0-0-0-1------------|
-0-0-0-0--0-0-0-0-1--0-0-0-0--0-0-0-1------------|

verse1

chorus
-------------------------------------------------|
-------------------------------------------------|
-77777-55555-33333-55555-------------------------|
-77777-55555-33333-55555-4310-4310---------------|
-55555-33333-11111-33333-4310-4310---------------|
-------------------------4310-4310---------------|

verse 3
-------------------------------------------------|
-------------------------------------------------|
------------------------------5-3-2-0-5-3-2--3-5-|
----------------5-3-2-0-5-3-2----------------3-5-|
-55555555-5-3-2------------------------------1-3-|
-------------------------------------------------|

verse2

verse3

solo
---------------------------------------------|
---------------------------------------------|
------------------------------5-3-2-0-5-3-2--|
----------------5-3-2-0-5-3-2----------------|
-5-3-2-0-5-3-2-------------------------------|
---------------------------------------------|
                                                      x2
-------------------------------------10h11h13-10-12-|
----------------------------10h11h13----------------|
-------------------10h11h13-------------------------|
----------10h11h13----------------------------------|
-10h11h13-------------------------------------------|
----------------------------------------------------|

chorus

tabbed by--------andrew S
Tap to rate this tab
# A B C D E F G H I J K L M N O P Q R S T U V W X Y Z