Song name
# A B C D E F G H I J K L M N O P Q R S T U V W X Y Z

Haste The Day - Labyrinth tab

This is a pretty easy song. Its probably actually played in drop c but my guitar 
was already in c# so whatever you can play one fret higher. 

(00:13)
both guitars
C#|--------------------|
G#|--------------------|
C#|-8----7----10----8--|
F#|-x----x-----x----x--| x2
A#|-6----5-----8----6--|
D#|--------------------|

(00:39)
both guitars
|-----------------------------------------------------------------|
|-----------------------------------------------------------------|
|-7-7-7-7-7-7-7-7-8-8-8-8-8-8-8-8-7-7-7-7-7-7-7-7-8-8-8-8-8-3-3-3-|
|-----------------------------------------------------------------|
|-----------------------------------------------------------------|
|-----------------------------------------------------------------|



breaks into two parts
guitar 1
|---------------------------------------------------------------------|
|---------------------------------------------------------------------|
|-7-7-7-7-7-7-7-7-15-15-15-15-15-14-14-14-15-15-15-15-15-15-15-15-10~-|
|---------------------------------------------------------------------|
|---------------------------------------------------------------------|
|---------------------------------------------------------------------|

guitar 2 
|-----------------------------------------------------------------|
|-----------------------------------------------------------------|
|-7-7-7-7-7-7-7-7-8-8-8-8-8-8-8-8-3-3-3-3-3-7-7-7-7~--------------|
|-----------------------------------------------------------------|
|-----------------------------------------------------------------|
|-----------------------------------------------------------------|
(might be wrong, but sounds ok)


(1:06)
guitar 1
|------------------------------------------------------------------------------------|
|------------------------------------------------------------------------------------|
|8-8-8-10-10-11-11-11-10-11-10-8-7-7-3-3-10-10-10-11-11-13-13-13-11-13-11-10-8-8-3-3-|x2
|------------------------------------------------------------------------------------|
|------------------------------------------------------------------------------------|
|------------------------------------------------------------------------------------| 

guitar 2
C#|--------------------|
G#|--------------------|
C#|-8----7----10----8--|
F#|-x----x-----x----x--| x2
A#|-6----5-----8----6--|
D#|--------------------|


both guitars
|-----------------------------------------------------------------|
|-----------------------------------------------------------------|
|-7-7-7-7-7-7-7-7-8-8-8-8-8-8-8-8-7-7-7-7-7-7-7-7-8-8-8-8-8-3-3-3-|
|-----------------------------------------------------------------|
|-----------------------------------------------------------------|
|-----------------------------------------------------------------|



guitar 1
|---------------------------------------------------------------------|
|---------------------------------------------------------------------|
|-7-7-7-7-7-7-7-7-15-15-15-15-15-14-14-14-15-15-15-15-15-15-15-15-10~-|
|---------------------------------------------------------------------|
|---------------------------------------------------------------------|
|---------------------------------------------------------------------|

guitar 2 
|-----------------------------------------------------------------|
|-----------------------------------------------------------------|
|-7-7-7-7-7-7-7-7-8-8-8-8-8-8-8-8-3-3-3-3-3-7-7-7-7~--------------|
|-----------------------------------------------------------------|
|-----------------------------------------------------------------|
|-----------------------------------------------------------------|


I feel like its pretty accurate but would love it if someone would prove me wrong.
Tap to rate this tab
# A B C D E F G H I J K L M N O P Q R S T U V W X Y Z