Song name
# A B C D E F G H I J K L M N O P Q R S T U V W X Y Z

Haste The Day - Travesty tab

Tabbed by: Joshua Garcia (halofreak731@aol.com)

Tabs for the song: Travesty by Haste the Day
Please rate and let me know if you have any corrections. Thank you.


Tuning: Drop C (C G C F A D)


Intro
Guitar 1:
D||------6----------6------------------|------6-----------------------------|
A||--3-4---4-3-------------------------|--3-4---4-3-------------------------|
F||------------5-/7---7h6-0-5/7-0------|------------5-/7-0------------------| x5
C||-------------------------------7/8--|-------------------8-7-0-3/7-0---0--|
G||------------------------------------|-------------------------------6----|
C||------------------------------------|------------------------------------|


Guitar 2:
D||---------|---------|--------|-------|-------|----------------|
A||---------|---------|--------|-------|-------|----------------|
F||---------|---------|--------|-------|-------|----------------|
C||---1-1---|---5-5---|---8~---|---1~--|---5~--|---8~---X-X-X---|
G||---1-1---|---5-5---|---8~---|---1~--|---5~--|---8~---X-X-X---|
C||---1-1---|---5-5---|---8~---|---1~--|---5~--|---8~---X-X-X---|


D||------------------------------------|
A||------------------------------------|
F||------------------------------------| x2
C||-11111111111111115555555588888888---|
G||-11111111111111115555555588888888---|
C||-11111111111111115555555588888888---|



Pre-Verse
Guitar 1/2:
D||--------------------------------------------|
A||--------------------------------------------|
F||--3-3------3-2--------3-3------3-2----------|
C||--1-1------1-1--------1-1------1-1---00000--|
G||--1-1------1-1--------1-1------1-1---00000--|
C||--1-1------1-1--------1-1------1-1---00000--|
                                        .....


Verse
Guitar 1:
D||---------------------------------------------------------------------------------------------|
A||---------------------------------------------------------------------------------------------|
F||----------------------------------------------------121415-15-12-12-14-14-15-15-12-12-14-14--|
C||-15-15-------------15-15---------------------121415------------------------------------------|
G||-------12-12-13-13-------12-12-13-13--121315-------------------------------------------------|
C||---------------------------------------------------------------------------------------------|


D||-------------------13-13-------------13-13--------------------------131517-18-18-18-15-15-15-|
A||---------------1516------15-15-16-16-------15-15-16-16-------131516--------------------------|
F||--------121415------------------------------------------1415---------------------------------|
C||-121415--------------------------------------------------------------------------------------|
G||---------------------------------------------------------------------------------------------|
C||---------------------------------------------------------------------------------------------|


D||-17-17-17-13-13-13--1513-----------------|
A||-------------------------161513----------|
F||--------------------------------151412---|
C||-----------------------------------------|
G||-----------------------------------------|
C||-----------------------------------------|


Guitar 1 (dubbed):
D||---------------------------------------------------------------------------------------------|
A||---------------------------------------------------------------------------------------------|
F||----------------------------------------------------151719-19-15-15-17-17-19-19-15-15-17-17--|
C||-15-15-------------15-15---------------------151719------------------------------------------|
G||--------------------------------------151718-------------------------------------------------|
C||-------15-15-17-17-------15-15-17-17---------------------------------------------------------|


D||----------------------------------------------------------------------182022-22-22-18-18-18--|
A||---------------182022-22-18-18-20-20-22-22-18-18-20-20---------182022------------------------|
F||--------151719------------------------------------------171920-------------------------------|
C||-151719--------------------------------------------------------------------------------------|
G||---------------------------------------------------------------------------------------------|
C||---------------------------------------------------------------------------------------------|


D||-20-20-20----------------------------------|
A||----------22-22-22--222018-----------------|
F||---------------------------201917----------|
C||----------------------------------201917---|
G||-------------------------------------------|
C||-------------------------------------------|


Guitar 2:
D||-------------------------------------------------------------------------------------|
A||-------------------------------------------------------------------------------------|
F||-------------------------------------------------------------------------------------|
C||-------------------------------------------------------------------------------------|
G||--55---5----55----5---555555-55---5----55---3----8-8---8-8---8-8-1-1---1----1-1---1--|
C||--55---5----55----5---555555-55---5----55---3----8-8---8-8---8-8-1-1---1----1-1---1--|
     ..   .    ..    .   ...... ..   .    ..   .    . .   . .   . . . .   .    . .   .


D||----------------------------------------------|
A||----------------------------------------------|
F||----------------------------------------------|
C||----------------------------------------------|
G||--111111-00---0----00---0----3-3---3-3---3-3--|
C||--111111-00---0----00---0----3-3---3-3---3-3--|
     ...... ..   .    ..   .    . .   . .   . .



Pre-Chorus
Guitar 1/2:
D||----------------------------------------------------------------------------------|
A||----------------------------------------------------------------------------------|
F||----------------------------------------------------------------------------------|
C||-------8-----7------8-----7---------------8-----7------8-----7--------------------|
G||--5555---5-6---5555---5-6---66665555-5555---5-6---5555---5-6------------10101010--|
C||--5555---------5555------------------5555---------5555---------77778888-10101010--|
     ....         ....                  ....         ....                  . . . .

D||-------------------------------------------------------------------------------------|
A||--------------------------------------------11--15-15-15----------13-13-13-----------|
F||-12-------------------12--------------10-12--------------15-15-15----------14-14-14--|
C||-------10-12-----------------10-12-13------------------------------------------------|
G||----10-------10101010----10----------------------------------------------------------|
C||-------------10101010----------------------------------------------------------------|
                . . . .

D||----------------------|
A||----------------------|
F||--1210----------------|
C||-------131210---------|
G||--------------131210--|
C||----------------------|


D||----------------------------------------------------------------------------------|
A||----------------------------------------------------------------------------------|
F||----------------------------------------------------------------------------------|
C||-------8-----7------8-----7---------------8-----7------8-----7--------------------|
G||--5555---5-6---5555---5-6---66665555-5555---5-6---5555---5-6------------10101010--|
C||--5555---------5555------------------5555---------5555---------77778888-10101010--|
     ....         ....                  ....         ....                  . . . .

D||-------------------------------------------------------------------------------------|
A||--------------------------------------------11--15-15-15----------13-13-13-----------|
F||-12-------------------12--------------10-12--------------15-15-15----------14-14-14--|
C||-------10-12-----------------10-12-13------------------------------------------------|
G||----10-------10101010----10----------------------------------------------------------|
C||-------------10101010----------------------------------------------------------------|
                . . . .

D||--------------131517--|
A||-------131516---------|
F||--1415----------------|
C||----------------------|
G||----------------------|
C||----------------------|



Chorus
Guitar 1:
D||------6----------6------------------|------6-----------------------------|
A||--3-4---4-3-------------------------|--3-4---4-3-------------------------|
F||------------5-/7---7h6-0-5/7-0------|------------5-/7-0------------------| x2
C||-------------------------------7/8--|-------------------8-7-0-3/7-0---0--|
G||------------------------------------|-------------------------------6----|
C||------------------------------------|------------------------------------|


Guitar 2:
D||------------------------------------|
A||------------------------------------|
F||------------------------------------| x2
C||-11111111111111115555555588888888---|
G||-11111111111111115555555588888888---|
C||-11111111111111115555555588888888---|



Pre-Verse
Guitar 1/2:
D||------------------------|
A||------------------------|
F||--3-3------3-2----------|
C||--1-1------1-1---00000--|
G||--1-1------1-1---00000--|
C||--1-1------1-1---00000--|
                    .....


Verse
Guitar 1/2:
D||----------------------------------------------------------------------------------|
A||----------------------------------------------------------------------------------|
F||----------------------------------------------------------------------------------|
C||-------8-----7------8-----7---------------8-----7------8-----7--------------------|
G||--5555---5-6---5555---5-6---66665555-5555---5-6---5555---5-6------------10101010--|
C||--5555---------5555------------------5555---------5555---------77778888-10101010--|
     ....         ....                  ....         ....                  . . . .

D||-------------------------------------------------------------------------------------|
A||--------------------------------------------11--15-15-15----------13-13-13-----------|
F||-12-------------------12--------------10-12--------------15-15-15----------14-14-14--|
C||-------10-12-----------------10-12-13------------------------------------------------|
G||----10-------10101010----10----------------------------------------------------------|
C||-------------10101010----------------------------------------------------------------|
                . . . .

D||----------------------|
A||----------------------|
F||--1210----------------|
C||-------131210---------|
G||--------------131210--|
C||----------------------|


D||----------------------------------------------------------------------------------|
A||----------------------------------------------------------------------------------|
F||----------------------------------------------------------------------------------|
C||-------8-----7------8-----7---------------8-----7------8-----7--------------------|
G||--5555---5-6---5555---5-6---66665555-5555---5-6---5555---5-6------------10101010--|
C||--5555---------5555------------------5555---------5555---------77778888-10101010--|
     ....         ....                  ....         ....                  . . . .

D||-------------------------------------------------------------------------------------|
A||--------------------------------------------11--15-15-15----------13-13-13-----------|
F||-12-------------------12--------------10-12--------------15-15-15----------14-14-14--|
C||-------10-12-----------------10-12-13------------------------------------------------|
G||----10-------10101010----10----------------------------------------------------------|
C||-------------10101010----------------------------------------------------------------|
                . . . .

D||--------------131517--|
A||-------131516---------|
F||--1415----------------|
C||----------------------|
G||----------------------|
C||----------------------|



Chorus
Guitar 1:
D||------6----------6------------------|------6-----------------------------|
A||--3-4---4-3-------------------------|--3-4---4-3-------------------------|
F||------------5-/7---7h6-0-5/7-0------|------------5-/7-0------------------| x4
C||-------------------------------7/8--|-------------------8-7-0-3/7-0---0--|
G||------------------------------------|-------------------------------6----|
C||------------------------------------|------------------------------------|


Guitar 2:
D||------------------------------------|
A||------------------------------------|
F||------------------------------------| x4
C||-11111111111111115555555588888888---|
G||-11111111111111115555555588888888---|
C||-11111111111111115555555588888888---|



Pre-Verse
Guitar 1/2:
D||------------------------------------|
A||------------------------------------|
F||--3-3------3-2--------3-3------3-0--|
C||--1-1------1-1--------1-1------1-1--|
G||--1-1------1-1--------1-1------1-1--|
C||--1-1------1-1--------1-1------1-1--|


Acoustic:
D||--------3-----3-----3-------|
A||----------------------------|
F||----3-2---3-2---3-2---3-2---|
C||--1-------------------------|
G||----------------------------|
C||----------------------------|



Interlude
Guitar 1:
D||----------10b---------------------13---------|
A||-----------------/8--10--11---10-----10-11---|
F||--/8--10-------------------------------------|
C||---------------------------------------------|
G||---------------------------------------------|
C||---------------------------------------------|


D||----------10b--------13----------------13------------|
A||-----------------/8------11---10h11p10-----11-10h11--|
F||--/8--10---------------------------------------------|
C||-----------------------------------------------------|
G||-----------------------------------------------------|
C||-----------------------------------------------------|


D||----------10b--------10-------------13-----------|
A||-----------------/8------11---10h11----11-10h11--|
F||--/8--10-----------------------------------------|
C||-------------------------------------------------|
G||-------------------------------------------------|
C||-------------------------------------------------|


D||----------10b----------------------------------|
A||-----------------/8--11--10---10---10---10-10--|
F||--/8--10----------------------10---10---10-10--|
C||-----------------------------------------------|
G||-----------------------------------------------|
C||-----------------------------------------------|


Guitar 2
D||---------------------------------------------|
A||---------------------------------------------|
F||--8---8---8----------------------------------| x4
C||--8---8---8------5---5---5---X---3--3--333---|
G||--6---6---6------5---5---5---X---3--3--333---|
C||-----------------5---5---5---X---3--3--333---|



Bridge
Guitar 1:
D||--------------------------------------------------|  \
A||--------------------------------------------------|   \
F||-12-12-12-12-12-12-12-12-12-12-12-12-12-12-12-12--|    \
C||-x--x--x--x--x--x--x--x--x--x--x--x--x--x--x--x---|     \
G||-10-10-10-10-10-10-10-10-10-10-10-10-10-10-10-10--|      \
C||--------------------------------------------------|       \
                                                              \
                                                              / x4
D||--------------------------------------------------|       /
A||--------------------------------------------------|      /
F||-15-15-15-15-15-15-15-15-14-14-14-14-14-14-14-14--|     /
C||-x--x--x--x--x--x--x--x--x--x--x--x--x--x--x--x---|    /
G||-13-13-13-13-13-13-13-13-12-12-12-12-12-12-12-12--|   /
C||--------------------------------------------------|  /


Guitar 2:
D||--------------------------------------------|
A||--------------------------------------------|
F||--------------------------------------------| x4
C||-11111111111111115555555533333333-(X-X-X)---|
G||-11111111111111115555555533333333-(X-X-X)---|
C||-11111111111111115555555533333333-(X-X-X)---|



Chorus/Outro
Guitar 1:
D||------6----------6------------------|------6-----------------------------|
A||--3-4---4-3-------------------------|--3-4---4-3-------------------------|
F||------------5-/7---7h6-0-5/7-0------|------------5-/7-0------------------| x6
C||-------------------------------7/8--|-------------------8-7-0-3/7-0---0--|
G||------------------------------------|-------------------------------6----|
C||------------------------------------|------------------------------------|


Guitar 2:
D||------------------------------------|
A||------------------------------------|
F||------------------------------------| x6
C||-11111111111111115555555588888888---|
G||-11111111111111115555555588888888---|
C||-11111111111111115555555588888888---|


Acoustic:
D||--------3-----3-----3-------|
A||----------------------------|
F||----3-2---3-2---3-2---3-2---|
C||--1-------------------------|
G||----------------------------|
C||----------------------------|


Guitar 1/2:
D||-------|
A||-------|
F||-------|
C||---1~--|
G||---1~--|
C||---1~--|





Tablature Legend
----------------
 h   - hammer-on
 p   - pull-off
 b   - bend
 r   - release bend
 *   - pinch harmonic
 '   - natural harmonic
 x   - mute note
 .   - palm mute
 /   - slide down
 \   - slide up
Tap to rate this tab
 
# A B C D E F G H I J K L M N O P Q R S T U V W X Y Z