Song name
# A B C D E F G H I J K L M N O P Q R S T U V W X Y Z

Haste The Day - Who We Are tab

Intro - Verse


Guitar 1

Listen to the song for the strumming pattern.

E|-----------------------------------------------------------------------------|
B|-----------------------------------------------------------------------------|
G|-----------------------------------------------------------------------------| X12
D|-7--------7--------0--0--0---------------------------------------------------|
A|-5--------5--------5--7--8---------------------------------------------------|
D|-8--------3--------0--0--0---------------------------------------------------|



Guitar 2

E|-----------------------------------------------------------------------------|
B|---------------------10h11-11-11-10-10-10-10h11------------------------------|
G|-----------------------------------------------------------------------------|
D|---------------------------------------------------12-12-12/14-14-14-14h15---|
A|-----------------------------------------------------------------------------|
D|-----------------------------------------------------------------------------|


E|-----------------------------------------------------------------------------|
B|---------------------10h11-11-11-10-10-10-10h11------------------------------|
G|-----------------------------------------------------------------------------|
D|--------------------------------------------------10/12-12-12/14-14-14-14h15-|
A|-----------------------------------------------------------------------------|
D|-----------------------------------------------------------------------------|


E|-----------------------------------------------------------------------------|
B|---------------------10h11-11-11-10-10-10-10h11------------------------------|
G|-----------------------------------------------------------------------------|
D|---------------------------------------------------12-12-12/14-14-14-14h15---|
A|-----------------------------------------------------------------------------|
D|-----------------------------------------------------------------------------|


E|-----------------------------------------------------------------------------|
B|---------------------10h11-11-11-13-10-10-10h11------------------------------|
G|-----------------------------------------------------------------------------|
D|---------------------------------------------------12-12-12/14-14-14-14h15---|
A|-----------------------------------------------------------------------------|
D|-----------------------------------------------------------------------------|


E|-----------------------------------------------------------------------------|
B|-----------------------------------------------------------------------------|
G|-----------------------------------------------------------------------------|
D|---------------------------------------------------12-12-12/14-14-14-14h15---|
A|-----------------------------------------------------------------------------|
D|-----------------------------------------------------------------------------|


E|-----------------------------------------------------------------------------|
B|---------------------10h11-11-11-10\8-8-8-8h10-------------------------------|
G|-----------------------------------------------------------------------------|
D|---------------------------------------------------12-12-12/14-14-14-14h15---|
A|-----------------------------------------------------------------------------|
D|-----------------------------------------------------------------------------|


E|-----------------------------------------------------------------------------|
B|---------------------10h11-11-11-11/13-13-13-13------------------------------|
G|-----------------------------------------------------------------------------|
D|---------------------------------------------------12-12-12/14-14-14-14h15---|
A|-----------------------------------------------------------------------------|
D|-----------------------------------------------------------------------------|


E|-----------------------------------------------------------------------------|
B|-----------------------------------------------------------------------------|
G|-----------------------------------------------------------------------------|
D|---------------------------------------------------12-12-12/14-14-14-14h15---|
A|-----------------------------------------------------------------------------|
D|-----------------------------------------------------------------------------|


E|-----------------------------------------------------------------------------|
B|---------------------10h11-11-11-10\8-8-8-8h10-------------------------------|
G|-----------------------------------------------------------------------------|
D|---------------------------------------------------12-12-12/14-14-14-14h15---|
A|-----------------------------------------------------------------------------|
D|-----------------------------------------------------------------------------|


E|-----------------------------------------------------------------------------|
B|-----------------------------------------------------------------------------|
G|-----------------------------------------------------------------------------|
D|---------------------------------------------------12-12-12/14-14-14-14h15---|
A|-----------------------------------------------------------------------------|
D|-----------------------------------------------------------------------------|




Chorus

Guitar 1

E|-----------------------------------------------------------------------------|
B|-----------------------------------------------------------------------------|
G|-----------------------------------------------------------------------------|
D|--------------------0-0000-0000---0-0000-0000-----8-8888-8888---8-8888-8888--| X3
A|--------------------0-0000-0000---0-0000-0000-----8-8888-8888---8-8888-8888--|
D|--------------------0-0000-0000---0-0000-0000-----8-8888-8888---8-8888-8888--|


E|-----------------------------------------------------------------------------|
B|-----------------------------------------------------------------------------|
G|-----------------------------------------------------------------------------|
D|--------------------0-0000-0000---0-0000-0000--------------------------------|
A|--------------------0-0000-0000---0-0000-0000--------------------------------|
D|--------------------0-0000-0000---0-0000-0000--------------------------------|




Guitar 2

E|-----------------------------------------------------------------------------|
B|-----------------------------------------------------------------------------|
G|-----------------------------------------------------------------------------|
D|------8---8------------------------------------------------------------------|
A|---(5)-(5)-------------------------------------------------------------------|
D|-----------------------------------------------------------------------------|

I'm really lazy and don't feel like figuring out all of the minor parts to the rest of 
the song, but I think that this is enough to at least play around with.
Tap to rate this tab
 
# A B C D E F G H I J K L M N O P Q R S T U V W X Y Z