Song name
# A B C D E F G H I J K L M N O P Q R S T U V W X Y Z

Haste The Day - Song Of Faith tab

-------------------------------------------------------------------------------
			     SONG OF FAITH - Haste The Day
-------------------------------------------------------------------------------
Tabbed by: Blablabigfoot
Email: Alien4ever@hotmail.com

Tuning: Drop C

Hi everybody. I was looking for this tab but since there's only one (which is OK but not
I decided to create one. It's not perfect since it's my first tab but still close.
it's the way that I play it. I will tab the 2 guitars. Comment please but please, don't 
stupid comments telling that the tab is bad and etc. If you have questions, email me or
you have questions on how the tab is write, listen to the song closely cause this is 
95 % right.


Guitar 1 (Intro) x3
d|-------------------------------------------------|
A|-------------------------------------------------|
F|----7-9--10--9--5-5h7p5----7-9--10--9--12-9h10p9-|
C|-------------------------------------------------|
G|-------------------------------------------------|
C|-0-----------------------0-----------------------|

Guitar 2 (Intro) x3 (All Palm Mute)
d|-------------------------------------------------|
A|-------------------------------------------------|
F|-------------------------------------------------|
C|-------------------------------------------------|
G|-------------------------------------------------|
C|-0-0-0-0-0-0-0-0-0-0-0-0-0-0-0-0-0-0-0-0-0-0-0-0-|

Guitar 1 & 2 (Intro End) x32
d|----|
A|----|
F|----|
C|-10-|
G|-10-|
C|-10-|

Guitar 1 & 2 (Verse) x4
d|--------------------------------------------|
A|--------------------------------------------|
F|--------------------------------------------|
C|--------------------------------------------|
G|---5-7-8--7-3-3h5p3---5-7--8-7-10-9h10p9----|
C|-0------------------0-----------------------|

Guitar 1 (Pre-Chorus) x4
d|---------------------------------------------------------------------|
A|---------------------------------------------------------------------|
F|---------------------------------------------------------------------|
C|--------5-555555--------------------------5-555555-------------------|
G|-5--7-5----------5--7-5-8-8888-7h8-5--7-5-----------5-5--8-8-7h8p7h8-|
C|---------------------------------------------------------------------|

Guitar 2 (Pre-Chorus) x4 (play only the 2nd and the 4th times ; 1st and 3rd play guitar 1)
d|------------------------------------------------------------------------------|
A|------------------------------------------------------------------------------|
F|--------7-777777---------------------------------7-777777---------------------|
C|-7--9-7----------7--9-7-10-10101010-9h10--7--9-7----------7-7--9-9--9h10p9h10-|
G|------------------------------------------------------------------------------|
C|------------------------------------------------------------------------------|

Guitar 1 (Chorus) x4
d|--------------------------------------------------------------|
A|--------------------------------------------------------------|
F|--14--------10--------12-------10--------9--------1212--1212--|
C|--x---------x---------x--------x---------x--------x-x---x-x---|
G|--12-(x16)--8--(x12)--10--(x4)-8--(x16)--7--(x8)--1010--1010--|
C|--------------------------------------------------------------|

Guitar 2 (Chorus) x4
d|----------------------------------------------|
A|----------------------------------------------|
F|--7--------10---------------------------------|
C|--7--------10-------8-------7------1010--1010-|
G|--5-(x16)--8--(x16)-8-(x16)-7-(x8)-1010--1010-|
C|--------------------8-------7------1010--1010-|

Guitar 1 & 2 (Breakdown) x8
d|------------------------------|
A|------------------------------|
F|------------------------------|
C|-----------------------10-----|
G|-0-0-0--0000-0--0-0-0--10-----|
C|-0-0-0--0000-0--0-0-0--10(x8)-|

Guitar 1 (Bridge) x4
d|---------------------------------------------------------------|
A|---------------------------------------------------------------|
F|--14--------10--------12-------10--------9-------1212--1212----|
C|--x---------x---------x--------x---------x-------x-x---x-x-----|
G|--12-(x16)--8--(x12)--10-(x4)--8--(x16)--7-(x8)--1010--1010----|
C|---------------------------------------------------------------|

Guitar 2 (Bridge) x4
d|----------------------------------------------|
A|----------------------------------------------|
F|--7--------10---------------------------------|
C|--7--------10-------8-------7------1010--1010-|
G|--5-(x16)--8--(x16)-8-(x16)-7-(x8)-1010--1010-|
C|--------------------8-------7------1010--1010-|

Guitar 1 & 2 (2nd Breakdown) x4
d|-------------------------------|
A|-------------------------------|
F|-------------------------------|
C|----------------------10-------|
G|-0-0-0--0000-0--0-0-0-10-------|
C|-0-0-0--0000-0--0-0-0-10-(x8)--|
   PM- -  ---- -  - - -
Guitar 1 & 2 (Pre-Interlude)
d|---------------|
A|---------------|
F|---------------|
C|---------------|
G|-0-0-0-0-0-0---|
C|-0-0-0-0-0-0---|
   PM------------|
Guitar 1 (Interlude) x4
d|-------------------------------------------------------------|
A|-------------------------------------------------------------|
F|--7-------------5-------------/3---------------2-------------|
C|-------------------------------------------------------------|
G|-------------------------------------------------------------|
C|-------------------------------------------------------------|

Guitar 2 (Interlude) x2 (start after the guitar one has done is riff 1 time)
d|--------------------------------------|
A|--------------------------------------|
F|---7--7---7---9-9---9---10-10---10--9-|
C|--------------------------------------|
G|--------------------------------------|
C|-0---0--0----0-0--0----0--0---0----0--|

Guitar 2 (Interlude End) x1 (Well, it's when the guitarist do the 3rd time)
d|-------------------------------------------------|
A|-------------------------------------------------|
F|---7--7---7---9-9---9---10-10-1212121212121212---|
C|-------------------------------------------------|
G|-------------------------------------------------|
C|-0---0--0----0-0--0----0--0----------------------|

Guitar 2 ("Real" Interlude End) x2
d|---5-565-5-5-565-5-5-565-5-5-56865-|
A|-----------------------------------|
F|--7-7---7-5-5---5-3-3---3----------|
C|--------------------------7-7------|
G|-----------------------------------|
C|-----------------------------------|

Guitar 1 ("Real" Interlude End) x1 (This part is play the 2nd time of Guit 2)
d|------|
A|------|
F|------|
C|--0---|
G|--0---|
C|--0---|

Guitar 1 (Final Chorus) x4
d|--------------------------------------|
A|--------------------------------------|
F|-7------7/9------9/10------10/12------|
C|-x------x/x------x/x-------x-/x-------|
G|-5-(x8)-5/7-(x6)-7/8--(x6)-8-/10-(x6)-|
C|--------------------------------------|

Guitar 2 (Final Chorus) x4 (Same as "Real" Interlude End)
d|---5-565-5-5-565-5-5-565-5-5-56865-|
A|-----------------------------------|
F|--7-7---7-5-5---5-3-3---3----------|
C|--------------------------7-7------|
G|-----------------------------------|
C|-----------------------------------|

Guitar 1 (Outro) 3x
d|----------------------------------------------------|
A|----------------------------------------------------|
F|---------7--------9-9/10---------10-------9-9/10----|
C|---------x--------x-x/x----------x--------x-x/x-----| suite below...
G|-0-0-0-0-5--0-0-0-7-7/8--0-0-0-0-8--0-0-0-7-7/8-----|
C|-0-0-0-0----0-0-0--------0-0-0-0----0-0-0-----------|
   PM-----    PM---        PM-----    PM--------------|
Guitar 1 (Outro Suite)
d|----------------------------------------------------|
A|----------------------------------------------------|
F|---------7--------9-9/10---------10--12-10-9/10\9---|
C|---------x--------x-x/x----------x---x--x--x-x--x---|
G|-0-0-0-0-5--0-0-0-7-7/8--0-0-0-0-8---10-8--7/8-\7---|
C|-0-0-0-0----0-0-0--------0-0-0-0--------------------|
   PM-----    PM---        PM-------------------------|
Guitar 2 (Outro) 3x
d|------------------------------------------------|
A|------------------------------------------------|
F|------------------------------------------------|
C|-(Don't have it right now, i'm working on it)---|
G|------------------------------------------------|
C|------------------------------------------------|

Guitar 1 & 2 (End)
d|------------|
A|------------|
F|---------7\-|
C|---------x\-|
G|-0-0-0-0-5\-|
C|-0-0-0-0----|
   PM-----


Order : - Intro
        - Intro End
        - Verse
        - Pre-Chorus
        - Chorus
        - Breakdown
        - Bridge
        - 2nd Breakdown
        - Pre-Interlude
        - Interlude
        - Interlude End
        - "Real" Interlude End
        - Final Chorus
        - Outro
        - End

So that's it. Rate and comment please ! I put a lot of time on it.

| /  slide up
| \  slide down
| h  hammer-on
| p  pull-off
| ~  vibrato
| +  harmonic
| x  Mute note
===============================================================================
Tap to rate this tab
# A B C D E F G H I J K L M N O P Q R S T U V W X Y Z