Guitaretab - guitar tabs
Song name
# A B C D E F G H I J K L M N O P Q R S T U V W X Y Z

Haste The Day - Substance tab

btw this is the first version of the song so it might be different than the new version

This is my first tab, enjoy


. . . . . . . . = palm muting





e|------------------------------------------------------------|
B|-----------—------------------------------------------------|
G|------------------------------------------------------------|
d|-------------------7-7----X4--------------------------------|
A|-0-0-0-0-0-0-0-0-0-7-7--------------------------------------|
D|-0-0-0-0-0-0-0-0-0-7-7--------------------------------------|
   . . . . . . . . .

e|-------------—-—-------------------------------------------|
B|------------—-—--------------------------------------------|
G|-7-7-7-7-7-7-7-7-9-9-9-9-10-10-10-10-----------------------|
d|-x-x-x-x-x-x-x-x-x-x-x-x-x--x--x--x------------------------|
A|-5-5-5-5-5-5-5-5-7-7-7-7-8--8--8--8------------------------|
D|-----------------------------------------------------------|


e|-----------------------------------------------------------|
B|-----------------------------------------------------------|
G|-7-7-7-7-7-7-7-7-10-10-10-10-9-9-9-9-----------------------|
d|-x-x-x-x-x-x-x-x-x--x--x--x--x-x-x-x-----------------------|
A|-5-5-5-5-5-5-5-5-8--8--8--8--7-7-7-7-----------------------|
D|-----------------------------------------------------------|

                                                                
e|------------------------------------------—-—-------------------|
B|--------------------------------------—-—-----------------------|
G|-7-7-7-7-7-7-7-7-9-9-9-9-10-10-10-10-12-12-12-12-10-10-10-10----|
d|-x-x-x-x-x-x-x-x-x-x-x-x-x--x--x--x--x--x--x--x--x--x--x--x-----|
A|-5-5-5-5-5-5-5-5-7-7-7-7-8--8--8--8--10-10-10-10-8--8--8--8---0-|
D|--------------------------------------------------------------0-|
										    .

e|---------------------------------------------------------------|
B|---------------------------------------------------------------|
G|---------------------------------------------------------------|
d|---------------------------------------------------------------|
A|-----------------5-5-5-7-7-7-8-8-------------------------------|
D|-0-3-5-0-3-5-0-0------------------0-3-5-0-3-5-0-0—(pick slide)-|

                                            
e|------------------------------------------------------------------|
B|------------------------------------------------------------------|
G|------------------------------------------------------------------|
d|------------------------------------------------------------------|
A|----------------5-5-5-7-7-7-8-8-----------------8-8-8-7-7-7-10-10-|
D|-0-3-5-0-3-5-0-0----------------0-3-5-0-3-5-0-0-------------------|
  |--------------X5--------------|          


                         vvv tremolo picking
e|-----------------------------------------------------------|
B|-----------------------------------------------------------|
G|-----------------------------------------------------------|
d|-----------------------------------------------------------|
A|-0-0-0-0---0-0---8-8-8-8-8-8-8-8-7-7-7-7-10-10-10-10-------|
D|-0-0-0-0---0-0---------------------------------------------|
   . . . .   . .
                        not really sure on this part
e|-----------------------------------------------------------|
B|-----------------------------------------------------------|
G|-----------------------------------------------------------|
d|-----------------------------------------------------------|
A|-0-0-0-0---0-0----7p5p0-6p4p0-5p3p0-4p2p0------------------|
D|-0-0-0-0---0-0---------------------------------------------|
   . . . .   . .
                         vvv tremolo picking
e|-----------------------------------------------------------|
B|-----------------------------------------------------------|
G|-----------------------------------------------------------|
d|-----------------------------------------------------------|
A|-0-0-0-0---0-0---8-8-8-8-8-8-8-8-7-7-7-7-10-10-10-10-------|
D|-0-0-0-0---0-0---------------------------------------------|
   . . . .   . .
[ Tab from: http://www.guitaretab.com/h/haste-the-day/68323.html ]
e|-----------------------------------------------------|
B|-----------------------------------------------------|
G|-----------------9-9-9-7-7-7-9-----------------------|
d|-----------------x-x-x-x-x-x-x-----------------------|
A|-0-0-0-0---0-0---7-7-7-5-5-5-7-----------------------|
D|-0-0-0-0---0-0---------------------------------------|
   . . . .   . .
                                              This whole thing twice
e|------------------------------------------------------------------|
B|------------------------------------------------------------------|
G|-----------------10-10-10-9-9-9-11----------------9-9-9-7-7-7-9---|
d|-----------------x--x--x--x-x-x-x-----------------x-x-x-x-x-x-x---|
A|-----------------8--8--8--7-7-7-9-----------------7-7-7-5-5-5-7---|
D|-0-3-5-0-3-5-0-0------------------0-3-5-0-3-5-0-0-----------------|

(Bass part here)

e|--------------------------------------------------------------------
B|--------------------------------------------------------------------
G|-7-7-7-7-7-7-7-7-7-7-7-7-7-7-7-7-9-9-9-9-9-9-9-9-9-9-9-9-9-9-9-9----
d|-x-x-x-x-x-x-x-x-x-x-x-x-x-x-x-x-x-x-x-x-x-x-x-x-x-x-x-x-x-x-x-x----
A|-5-5-5-5-5-5-5-5-5-5-5-5-5-5-5-5-7-7-7-7-7-7-7-7-7-7-7-7-7-7-7-7----
D|--------------------------------------------------------------------

-----------------------------------------------------------
-----------------------------------------------------------
-10-10-10-10-10-10-10-10-10-10-10-10-10-10-12-12-----------
-x--x--x--x--x--x--x--x--x--x--x--x--x--x--x—-x------------
-8--8--8--8--8--8--8--8--8--8--8--8--8--8--10-10-----------
-----------------------------------------------------------


----------------------------------------------------------------------|
----------------------------------------------------------------------|
-10-10-10-10-10-10-10-10-9-9-9-9-9-9-12-12----------------------------|
-x--x--x--x--x--x--x--x--x-x-x-x-x-x-x--x-----------------------------|
-8--8--8--8--8--8--8--8--7-7-7-7-7-7-10-10----------------------------|
----------------------------------------------------------------------|


e|--------------------------------------------------------------------
B|--------------------------------------------------------------------
G|-7-7-7-7-7-7-7-7-7-7-7-7-7-7-7-7-10-10-9-9-9-9-9-9-9-9-9-9-9-9-9-9--
d|-x-x-x-x-x-x-x-x-x-x-x-x-x-x-x-x-x--x--x-x-x-x-x-x-x-x-x-x-x-x-x-x--
A|-5-5-5-5-5-5-5-5-5-5-5-5-5-5-5-5-8--8--7-7-7-7-7-7-7-7-7-7-7-7-7-7--
D|--------------------------------------------------------------------


-------------------------------------------------------------
-------------------------------------------------------------
-10-10-10-10-10-10-10-10-10-10-10-10-10-10-10-10-12-12-12-12-
-x--x--x--x--x--x--x--x--x--x--x--x--x--x--x--x--x--x--x--x--
-8--8--8--8--8--8--8--8--8--8--8--8--8--8--8--8--10-10-10-10-
-------------------------------------------------------------


-----------------------------------------------------------|
-----------------------------------------------------------|
-12-12-12-12-12-12-12-12-12-12-12-12-----------------------|
-x--x--x--x--x--x--x--x--x--x--x--x------------------------|
-10-10-10-10-10-10-10-10-10-10-10-10-----------------------|
-----------------------------------------------------------|

		  | the 4th time end there
e|------------|-----------------------------------------------|
B|------------|-----------------------------------------------|
G|------------|-----------------------------------------------|
d|-0-----1----v--------------1---3----------------------------|
A|-0-0-0-1-0-0----0-0-0-0-0-1-0-3-x12-------------------------|
D|-0-0-0-1-0-0----0-0-0-0-0-1-0-3-----------------------------|
     . .   . .    . . . . .   .

e|-------------------------------------------------------------|
B|-------------------------------------------------------------|
G|-------------------------------------------------------------|
d|-0-----1-----------------------------------------------------|
A|-0-0-0-1-0-0-------------------------------------------------|
D|-0-0-0-1-0-0-------------------------------------------------|
     . .   . .          Do this the 8th time

didn’t feel like doing the parts after this :P
Related for Substance tab
Advertisement will be closed in 10 seconds