Song name
# A B C D E F G H I J K L M N O P Q R S T U V W X Y Z

Haste The Day - When Everything Falls tab

tuning: CGCfad   



okay, i've been working on this song a while and i'm pretty sure that this is 99% accurate so here you go

* = pinch harmonic
. = mute note
h = hammer-on
p = pull-off
\ = slide-down
/ = slide-up

 intro 
guitar 1 (and it is played through as guitar 2 comes in)
|-------------------------------------------------------------------------|
|-------------------------------------------------------------------------|
|-------------------------------------------------------------------------|
|---------0------[1x]--------0-------------0------------------------------|
|---------0------------------0-------------0-------[8x]-------------------|
|---00000-0-0000-------00000-0-0000-0-00-0-0-0000-------------------------|
    .....   ....       .....   .... . .. .   ....

guitar 2
|-------------------------------------------------------------------------|
|---------------------------------------------------------2x--------------|
|-------------------------------------------------------------------------|
|-------------------*2-----------------*3---------------------------------|
|--555-888-777-888----555-888-777-888----555-888-777-888-1010-88-77-88-55-|
|-------------------------------------------------------------------------|




verse 1       
both guitars
play to first bar first time then play through the second and repeat that 3 times         
|------------------------------------------------|------------------------|
|------------------------------------------------|------------------------|
|-------------------------------------2x---------|---10-9-10------12-10-9-|
|------------------------------------------------|------------------------|
|-------------5h7p5--------------8---------------|------------------------|
|-0-000-000-0-------88-7h8p7-3h5---55-5h7p5\3p0--|-8-----------10---------|
  . ... ... .



pre chorus 1
both guitars
|-------------------------------------------------------------------------|
|-------------------------------------------------------------------------|
|-------------------------10-10--9-9--10-10--9-9-9-----------4x-----------|
|-0-10-9---10-7-----9/10--------------------------------------------------|
|-0-8--7---8--5-----7/8----8--8--7-7---8--8--8-8-8------------------------|
|-0------0------0-0-------------------------------------------------------|
         .      . .





chorus
guitar 1 (this is the part i'm not too sure about)
|-------------------------------------------------------------------------|
|-------------------------------------------------------------------------|
|--10-9----10-10\9----10-9/10----14-14-14-12-12-12---------------2x-------|
|-------8-----------3-----------------------------------------------------|
|---8-7-8---8--8\7--3--8-7--8----12-12-12-10-10-10------------------------|
|-------8-----------3-----------------------------------------------------|



chorus
guitar 2
|-------------------------------------------------------------------------|
|----------------------------------------------------------------2x-------|
|-------------------------------------------------------------------------|
|0-0-000-8-8-888-3-3-333-5-5-555-0-0-000-8-8-888-3-3-333-5-5-555----------|
|0-0-000-8-8-888-3-3-333-5-5-555-0-0-000-8-8-888-3-3-333-5-5-555----------|
|0-0-000-8-8-888-3-3-333-5-5-555-0-0-000-8-8-888-3-3-333-5-5-555----------|




verse 2
both guitars  (same as verse one)
|------------------------------------------------|------------------------|
|------------------------------------------------|------------------------|
|-------------------------------------2x---------|---10-9-10------12-10-9-|
|------------------------------------------------|------------------------|
|-------------5h7p5--------------8---------------|------------------------|
|-0-000-000-0-------88-7h8p7-3h5---55-5h7p5\3p0--|-8-----------10---------|
  . ... ... .




pre chorus 2 (same)
|-------------------------------------------------------------------------|
|-------------------------------------------------------------------------|
|-------------------------10-10--9-9--10-10--9-9-9-----------4x-----------|
|-0-10-9---10-7-----9/10--------------------------------------------------|
|-0-8--7---8--5-----7/8----8--8--7-7---8--8--8-8-8------------------------|
|-0------0------0-0-------------------------------------------------------|
         .      . .




chorus
guitar 1
|-------------------------------------------------------------------------|
|-------------------------------------------------------------------------|
|--10-9----10-10\9----10-9/10----14-14-14-12-12-12---------------2x-------|
|-------8-----------3-----------------------------------------------------|
|---8-7-8---8--8\7--3--8-7--8----12-12-12-10-10-10------------------------|
|-------8-----------3-----------------------------------------------------|





chorus 
guitar 2
|-------------------------------------------------------------------------|
|----------------------------------------------------------------2x-------|
|-------------------------------------------------------------------------|
|0-0-000-8-8-888-3-3-333-5-5-555-0-0-000-8-8-888-3-3-333-5-5-555----------|
|0-0-000-8-8-888-3-3-333-5-5-555-0-0-000-8-8-888-3-3-333-5-5-555----------|
|0-0-000-8-8-888-3-3-333-5-5-555-0-0-000-8-8-888-3-3-333-5-5-555----------|




breakdown
both guitars
|-------|----------------------------|------------------------------------|
|-------|----------------------------|------------------------------------|
|-------|-----------------------3x---|------------------------------------|
|0------|-------0-------------0------|------------------------------------|
|0------|-------0-------------0------|------------------------------------|
|0--0000|-00000-0-0000-0-00-0-0-0000-|---00000000|                   
    ....  .....   .... . .. .   ....     ........





solo (no/low distortion)
guitar 1           this is the fun part
|------0--------0----------5---------5------------------------------------|
|----6--6-----6--6-------6--6------6--6-----------------------------------|
|--------7--------7-----5-5--5-2--5-5------------------------4x-----------|
|-0-7-7------7-7-----------------------0----------------------------------|
|---------8~-------8~-----------------------------------------------------|
|-------------------------------------------------------------------------|





chorus
guitar 1
|-------------------------------------------------------------------------|
|-------------------------------------------------------------------------|
|--10-9----10-10\9----10-9/10----14-14-14-12-12-12---------------4x-------|
|-------8-----------3-----------------------------------------------------|
|---8-7-8---8--8\7--3--8-7--8----12-12-12-10-10-10------------------------|
|-------8-----------3-----------------------------------------------------|





chorus
guitar 2
|-------------------------------------------------------------------------|
|----------------------------------------------------------------4x-------|
|-------------------------------------------------------------------------|
|0-0-000-8-8-888-3-3-333-5-5-555-0-0-000-8-8-888-3-3-333-5-5-555----------|
|0-0-000-8-8-888-3-3-333-5-5-555-0-0-000-8-8-888-3-3-333-5-5-555----------|
|0-0-000-8-8-888-3-3-333-5-5-555-0-0-000-8-8-888-3-3-333-5-5-555----------|




outro
both guitars
|-------------------------------------------------------------------------|
|-------------------------------------------------------------------------|
|---------------------------------------------------------------10~-------|
|-3~-----------------------------5~-----------------------------0~--------|
|-3~-----------------------------5~-----------------------------0~--------|
|-3~-----------------------------5~-----------------------------0~--------|
Tap to rate this tab
# A B C D E F G H I J K L M N O P Q R S T U V W X Y Z