Song name
# A B C D E F G H I J K L M N O P Q R S T U V W X Y Z

Haste The Day - Servant Ties tab

                    I  N  T  R  O

guitar 1 only

d-  -------------------------------------------------|
a-  -------------------------------------------------|
f-  10/7--------10/7---10/12/14--9/5--------9/5--5/7-|
c-  ------0000------------------------0000-----------|
g-  8 /5--0000--8 /5---8 /10/12--7/3--0000--7/3--3/5-|
c-  ------0000------------------------0000-----------|

d-  -------------------------------------------------|
a-  -------------------------------------------------|
f-  10/7--------10/7---10/12/14--9/5-----------------|
c-  ------0000------------------------0000--8--88888-|
g-  8 /5--0000--8 /5---8 /10/12--7/3--0000--8--88888-|
c-  ------0000------------------------0000--8--88888-|

d-  ------------------------------------------------|
a-  5h6-6-6--6-5h6-6-6--6-6p5-5-5---5~5-5-55--------|
f-  5h7-7-7--7-5h7-7-7--7-7p5-5-5---5p2-2-22--------|  X 5
c-  ------------------------------------------------|
g-  ------------------------------------------------|
c-  ------------------------------------------------|


Sorry this is as far as i could get, plus its my first tab ever, let me know how i did guys!!
-CORY
Tap to rate this tab
# A B C D E F G H I J K L M N O P Q R S T U V W X Y Z