Song name
# A B C D E F G H I J K L M N O P Q R S T U V W X Y Z

Haste The Day - O Come Emmanuel tab

Help us improve GuitareTab! Take a short survey!
[Haste The Day]
[O' Come Emmanuel]

[Tabbed by Richard Yanek]

Here's what I've got so far, or so I think...  The solo is DEFINITELY off, but it's a 
 Straight up finger picking!  Also tacked on lyrics at the end.  Standard Tuning...


Intro / Verse / Behind the solo as well... (One guitar anyway...)
e|----------------------------------------------------------------|
B|---------0-------------------------------0----------------------|
G|-----0---------0-------0-----0-------0---------0----------------|
D|---2---------2-------0-----0-------4---------4------------------|
A|---------------------------------3-----3---3--------------------|
E|-0-----0---0-----0h2-----3-----3--------------------------------|

e|----------------------------------------------------------------|
B|---------0-------------------------------0----------------------|
G|-----0---------0-------0-------0-----0---------0----------------|
D|---4---------4-------4-------4-----2---------2------------------|
A|-0-----0---0-----0h2--------------------------------------------|
E|-------------------------3-------0-----0---0--------------------|

Rejoice part...
e|----------------------------------------------------------------|
B|-----------------------------------------------------------0----|
G|-7---------------4---------------2-------0-------0-----0--------|
D|---------------------------------------4-------4-----2---------0|
A|-5---------------2-----------------0-------2--------------------|
E|---------------------------------------------------0-----0------|
                                                    End harmonics
e|--------------------------------------------------|-------------|
B|-------0---------------------------------0--------|----5*-------|
G|-----0-----0---------------------------0---0---0--|------5*-----|
D|---0---------0---------4-------4-----0-------2----|-------------|
A|---------------------5-------5--------------------|--------3*---|
E|-3---------------5-------2-------0----------------|-------------|

Solo
B|----------------------------------------------------------------|
G|/9--11--12--14--/9--12--11---7--/9--12--11---7/9----------------|
D|----------------------------------------------------------------|

B|----------------------------------------------------------------|
G|-----------------------------------7-9--------------------------|
D|-9------10-------7-------9-------9------------------------------|
A|----------------------------------------10-9-5-7----------------|
E|----------------------------------------------------------------|
          I cannot figure this part out to save my life...
e|-----------------------------------------------------------------|
B|-----------------------------------------------------------------|
G|-----------------------------------------------------------------|
D|-----------------------------------------------------------------|
A|-----------------------------------------------------------------|
E|-----------------------------------------------------------------|

e|-----------------------------------------------------------------|
B|--------------------------12-13-12-10----------------------------|
G|-----7---9-----7---9------------------12-11----9-----------------|
D|--------------------------------------------12-------------------|
A|-----------------------------------------------------------------|

Lyrics (It's a hymn for cryin' out loud):

O come, O come, Emmanuel
And ransom captive Israel
That mourns in lonely exile here
Until the Son of God appear
Rejoice! Rejoice! Emmanuel
Shall come to thee, O Israel.

O come, Thou Day-Spring, come and cheer
Our spirits by Thine advent here
And drive away the shades of night
And pierce the clouds and bring us light
Rejoice! Rejoice! Emmanuel
Shall come to thee, O Israel.

O come, Desire of nations, bind
All people in one heart and mind
Bid envy strife and quarrel cease
Fill all the world with Heaven's peace
Rejoice! Rejoice! Emmanuel
Shall come to thee, O Israel.
Shall come to thee, O Israel.
Related for O Come Emmanuel tab