Hate Eternal - The Obscure Terror tab

band;hate eternal
album;king of all kings
song; the obscure terror
tuning from low to high; c#,f#,b,e,g#,c#
tabber;ben chaffins
this may be about 90-95% correct
for anyone out there who listens to this band u are pure death metal
my horns go up to you to me my favorite death metal bands go like this
hate eternal, morbid angel,cannibal corpse,deicide,death,vital 
remains,bloodbath,nile,deeds of flesh, and severed savior
any way here is the song putting in standard so its easier to read

the . indicates palm mute

e----------------------------------------------------------------------------|
b----------------------------------------------------------------------------|
g-5---5---7-8-5---7---5---5---7-8-6------------------------------------------|
d-4---4---6-7-4---5---4---4---6-7-5---3--------------------------------------|
a-3-3-3-3-5-6-3-3-4-4-3-3-3-3-5-6-3-3-2-2-33----33----556633----444433----33-|
e---2---2-------2---3---2---2-----2-----1----22----22--------22--------22----|
    .   .       .   .   .   .     .     .
e---------------|
b---------------|
g---------------|
d---------------|
a----5566332222-|
e-22------------|

 this here below is the pre verse set
e----------------------------------------------------------------------------|
b----------------------------------------------------------------------------|
g---10--11---12-11-12--11-12-13--12-13-14-----4---5--6--10---11--------------|
d---9---10---11-10-11--10-11-12--11-12-13---3-3-4-4--5---9---10--------------|
a-2-8-3-9--4--------------------------------2-2-3-3--4-2-8-3-9---------------|
e-1---2----3--------------------------------1---2----3-1---2----8-7-6--7-6-5-|

e---------------------------------------------------------------------------|
b---------------------------------------------------------------------------|
g----------4---5-------------------------10---11---12-11-12--11-12-13-12-13-|
d--------3-3-4-4--------------------------9---10---11-10-11--10-11-12-11-12-|
a--------2-2-3-3-----------------------2----3----4--------------------------|
e-6-5-4--1---2----8-7-6--7-6-5--6-5-4--1----2----3--------------------------|
Tap to rate this tab
 
# A B C D E F G H I J K L M N O P Q R S T U V W X Y Z