Song name
# A B C D E F G H I J K L M N O P Q R S T U V W X Y Z

Hate Eternal - Haunting Abound tab

band;hate eternal
song;haunting abound
album;pheonix amongst the ashes
tuning from low to high c#,f#,b,e,g#,c#
tabber;ben chaffins
i just love this fucking song it has like some sorcery guitar skills
or something it just kicks fucking ass man awesome song just awesome
putting in standard so its easier to read
" equals 12 notes
e--------------------------------------------------------------|
b--------------------------------------------------------------|
g-6--6-5--3--6--6--------3--6--6-5--3--6--6-------3------------|
d-5--5-4--2--5--5--------2--5--5-4--2--5--5-------2--------11"-|
a-4--4-3--1--4--4--------1--4--4-3--1--4--4-------1--------10"-| HAUNTING
e-3--3-2-----3--3--0-0-0----3--3-2-----3--3-0-0-0----4--3---9"-|  ABOUND
                   . . .                    . . .
play this here below 4 times
e---------------|
b---------------|
g---------------|
d-----------11"-|
a-3---------10"-|
e---3h4p3-0--9"-|

main riff
e---------------------------------------------------------------------------|
b---------------------------------------------------------------------------|
g-----------------------6/5---8---------------------------------------------|
d-----5-4-7---6---5-----5/4---7-----5-4-----7---6---5-----------5-4-7---6---|
a-----4-3-6---5---4-----4/3---6-----4-3-----6---5---4-0-4-3-2-1-4-3-6---5---|
e-0-0-3-2-5-0-4-0-3-0-0-3/2-0-5-0-0-3-2-0-0-5-0-4-0-3-0-4-3-2-1-3-2-5-0-4---|
  . . . . . . . . . . .     .   . . . . . . . . . . . . . . . . . . . . .
main riff continued play all together 2 times " means 12 notes
e--------------------------|
b--------------------------|
g---------6/5---8-9"----6"-|
d---5-----5/4---7-8"----5"-|
a---4-----4/3---6-7"----4"-|
e-0-3-0-0-3/2-0-5-6"----3"-|
  . . . .     .
e----------|
b----------|
g----------|
d------11"-|
a------10"-|
e-4--3--9"-|

play this here below 4 times
e---------------|
b---------------|
g---------------|
d-----------11"-|
a-3---------10"-|
e---3h4p3-0--9"-| then play main riff 2 times

riff 2
e-------------------------------------------------------------------------|
b-------------------------------------------------------------------------|
g-------------------------------------------------------------------------|
d---------3333---------5555---------3333555588887777---------3333---------|
a-2-3-2-3------3-2-3-2------2-3-2-3------------------2-3-2-3------3-2-3-2-|
e-0-1-0-1------1-0-1-0------0-1-0-1------------------0-1-0-1------1-0-1-0-|
  . . . .      . . . .      . . . .                  . . . .      . . . .
riff 2 continued play riff 2 4 times
e----------------------|
b----------------------|
g----------------------|
d-55557777101010109999-
a----------------------|
e----------------------|
 the solo starts here here is the part after the solo

riff 3
e-------------------------------------------------------------------------|
b-------------------------------------------------------------------------|
g-------------------------------------------------------------------------|
d-------------------------------------------------------------------------|
a-4-3-2-333333-4-3-2-222222-4-3-2-111100001111000011110000-4-3-2-333333---|
e-4-3-2--------4-3-2--------4-3-2--------------------------4-3-2----------|
  . . .        . . .        . . .                          . . .

riff 3 continued play riff 3 4 times the chord ends the song
e------------------------------------|
b------------------------------------|
g------------------------------------|
d----------------------------------2-|
a-4-3-2-222222777777666666333333---2-|
e-4-3-2----------------------------0-|
  . . .
Tap to rate this tab
 
# A B C D E F G H I J K L M N O P Q R S T U V W X Y Z