Song name
# A B C D E F G H I J K L M N O P Q R S T U V W X Y Z

Hate Eternal - The Fire Of Resurrection tab

band;hate eternal
song;the fire of resurrection
album;phoenix amongst the ashes
tuning from low to high c#,f#,b,e,g,c#
tabber;ben chaffins
again in standard so its easier to read

e--------------------------------------------------------------------------|
b--------------------------------------------------------------------------|
g--------------------------------------------------------------------------|
d-2---------2--------------------2-----------------2-------5/7-7-5-5-3-3-1-|
a-2-------2-2--------7-7-6-6-----2------2---2-2--2-2-----------------------|
e-0-------0-0----------------8-8-0------0---0-0--0-0-----------------------|
          .                             .   . .  .

e--------------------------------------------------------------------------|
b--------------------------------------------------------------------------|
g--------------------------------------------------------------------------|
d-2-2/5-4------------------------------------------------------------------|
a-----------2---7---7---777---2---9---9---999---2---10---10---101010---2---|
e---------0-0-0-------------0-0-0-------------0-0-0------------------0-0-0-|
          .   .             .   .             .   .                  .   .
e----------------------------------------------------------------------------|
b----------------------------------------------------------------------------|
g----------------------------------------------------------------------------|
d----------------------------------------------------------------------------|
a-9---10---9---777---2----7---7---777---2---9---9---999---2---10--10--101010-|
e------------------0-0-0--------------0-0-0-------------0-0-0----------------|
                   .   .              .   .             .   .
e---------------------------------------------------------------------------|
b---------------------------------------------------------------------------|
g---------------------------------------------------------------------------|
d---------------------------------------------------------------------------|
a---2---9---10---9---777---2---7---7---777---2---9---9---999----2---10---10-|
e-0-0-0------------------0-0-0-------------0-0-0--------------0-0-0---------|
  .   .                  .   .             .   .              .   .
e-------------------------------------------------------------------------|
b-------------------------------------------------------------------------|
g-------------------------------------------------------------------------|
d-------------------------------------7---7---777-------5---5---555-------|
a-101010---2---9---10---9---777---2-----------------2-----------------2---|
e--------0-0-0------------------0-0-0-------------0-0-0-------------0-0-0-|
         .   .                  .   .             .   .             .   .
e------------------------------------------------|
b------------------------------------------------|
g------------------------------------------------|
d-4--4--5--5--7--7--5-5-1-1-1-------2-2/5---4----|
a-----------------------------2-2-2--------------|
e------------------------------------------------|

i think you get the idea of the song just listen to it for timing and how many times you 
have to play it to end the song
Tap to rate this tab
# A B C D E F G H I J K L M N O P Q R S T U V W X Y Z