Song name
# A B C D E F G H I J K L M N O P Q R S T U V W X Y Z

Hate Eternal - The Obscure Terror tab

band; hate eternal
song; the obscure terror
album; king of all kings
tuning from low to high c#,f#,b,e,g#,c#
tabber; ben chaffins
this was the best that i could come up with for this awesome song
like always putting in standard so its easier to read im only showing you the basics of 
this song you'll have to listen to it for timing and how many times you have to play any 
riff in this song

e-------------------------------------------------------------------------|
b-------------------------------------------------------------------------|
g-5----5----7/8-5---6----5----5--7/8-5----4----5----5----7/8-5----6----5--|
d-4----4----6/7-4---5----4----4--6/7-4----3----4----4----6/7-4----5----4--|
a-3--3-3--3-5/6-3-3-4--3-3--3-3--5/6-3--3-2--3-3--3-3--3-5/6-3--3-4--3-3--|
e----2----2-------2-3--2----2-----------2-1--2----2----2--------2-3--2----|
     .    .       .    .    .           .    .    .    .        .    .

e--------------------------------------------------------------------------|
b--------------------------------------------------------------------------|
g-5----7/8-5----5----5----4--5----5----7/8-5----6----5----5----7/8-5----4--|
d-4----6/7-4----4----4----3--4----4----6/7-4----5----4----4----6/7-4----3--|
a-3--3-5/6-3--3-3--3-3--3-2--3--3-3--3-5/6-3--3-4--3-3--3-3--3-5/6-3--3-2--|
e----2--------2----2----2-1-----2----2--------2-3--2----2----2--------2-1--|
     .        .    .    .       .    .        .    .    .    .        .

e---------------------------------------------------------------------------|
b---------------------------------------------------------------------------|
g---5----5----7/8-5----6----5----5----7/8-5----4----------------------------|
d---4----4----6/7-4----5----4----4----6/7-4----3--------15-----16-----15/14-|
a-3-3--3-3--3-5/6-3--3-4--3-3--3-3--3-5/6-3--3-2----222-14-333-15-444-14/13-|
e-2----2----2--------2-3--2----2----2--------2-1----111----222----333-------|
  .    .    .        .    .    .    .        .

e---------------------------------------------------------------------------|
b---------------------------------------------------------------------------|
g---------------------------------------------------------------------------|
d-16-16/15-17-17/16-18-----15-----16------------------------------15-----16-|
a-15-15/14-16-16/15-17-222-14-333-15-444----------------------222-14-333-15-|
e----------------------111----222----333-8-7-6--7-6-5--6-5-4--111----222----|

e---------------------------------------------------------------------------|
b---------------------------------------------------------------------------|
g---------------------------------------------------------------------------|
d-----15/14-16-16/15-17-17/16-18-----15-----16------------------------------|
a-444-14/13-15-15/14-16-16/15-17-222-14-333-15-444----------------------222-|
e-333----------------------------111----222----333-7-6-5--6-5-4--5-4-3--111-|

e-------------------------------------------------------------------------|
b-------------------------------------------------------------------------|
g---------------------------------------------------------------10-----9--|
d-15-----16-----15/14-16-16/15-17-17/16-18-----15-----16-----6---9--6--8--|
a-14-333-15-444-14/13-15-15/14-16-16/15-17-222-14-333-15-444-5---8--5--7--|
e----222----333----------------------------111----222----333-4------4-----|

e---------------------------------------------------------------------------|
b---------------------------------------------------------------------------|
g---------------------------------------------------------------------------|
d-7/6/7-9-9------15-----16-----15/14-16-16/15-17-17/16-18-----15-----16-----|
a-6/5/6-8-8--222-14-333-15-444-14/13-15-15/14-16-16/15-17-222-14-333-15-444-|
e-5/4/5-7-7--111----222----333----------------------------111----222----333-|

e---------------------------------------------------------------------------|
b---------------------------------------------------------------------------|
g---------------------------------------------------------------------------|
d--------------------------15-----16-----15/14-16-16/15-17-17/16-18-----15--|
a----------------------222-14-333-15-444-14/13-15-15/14-16-16/15-17-222-14--|
e-7-6-5--6-5-4--5-4-3--111----222----333----------------------------111-----|

e--------------------------------------------------------------------------|
b--------------------------------------------------------------------------|
g---------------10-----9----------------11------------------10-------------|
d-----16-----6---9--6--8--7/6/7-9-9--7--10--9/8/9-11-11--6---9--7/6/7-9-9--|
a-333-15-444-5---8--5--7--6/5/6-8-8--6---9--8/7/8-10-10--5---8--6/5/6-8-8--|
e-222----333-4------4-----5/4/5-7-7--5------7/6/7--9--9--4------5/4/5-7-7--|

e----------------------------------------------------------------------------|
b----------------------------------------------------------------------------|
g----11----------------------------------------------------------------------|
d-7--10--9/8/9-11-11--9/10/9/10/9/10-----------------------------------------|
a-6---9--8/7/8-10-10--8/-9/8/-9/8/-9---7-------------8-------------8-7-7-8-8-|
e-5------7/6/7--9--9--7/-8/7/-8/7/-8------0011331100----0011331100-----------|
                                          ..........    ..........
e----------------------------------------------------------------------|
b----------------------------------------------------------------------|
g----------------------------------------------------------------------|
d----------------------------------------------------------------------|
a-11-11-12-12-14-14-7-------------8-------------8-7-7-8-8-5-5-4-4/8-7--|
e----------------------0011331100----0011331100------------------------|
                       ..........    ..........

e-----------------------------------------------------------------|
b-----------------------------------------------------------------|
g-----------------------------------------------------------------|
d-9--7--8--5--7--4--9--11-11-11---9--7--8--5--7--4--9--11-11-11---|
a-8--6--7--4--6--3--8--10-10-10---8--6--7--4--6--3--8--10-10-10---|
e-7--5--6--3--5--2--7---9--9--9---7--5--6--3--5--2--7---9--9--9---|

solo starts after these chords here and as solo goes on you can hear the intro being 
played and after that you play everything after the intro but when ending the song end with 
this chord here below
    and thats it
e----
b----
g-6--
d-5--
a-4--
e-3--
Tap to rate this tab
# A B C D E F G H I J K L M N O P Q R S T U V W X Y Z