Song name
# A B C D E F G H I J K L M N O P Q R S T U V W X Y Z

Hate Forest - Black Forest tab

No official website but there's an Encyclopedia Metallum on them:
http://www.metal-archives.com/band.php?id=2234

From the album "The Most Ancient Ones". Can also be found on "The Twilight
Thickets", but in E standard instead.

Legend:

||||||||||||||||
t - tremolo pick
||||||||||||||||

intro riff:
   t t t t t t t t  t   t   t
E|--------------------------------|
B|--------------------------------|
G|----------------------5---------|
D|-----4-2-----4-2--4-------5-----|
A|-3-5-----3-5--------------------|
E|--------------------------------|

2nd riff:
   t  t    t t  t
E|--------------------------------|
B|--------------------------------|
G|--------------------------------|
D|--------------------------------|
A|-7--8---11-8-11-----------------|
E|--------------------------------|

3rd riff:
      t t     t t     t   t  t  t t      t   t  t  t t
E|------------------------------------------------------|
B|------------------------------------------------------|
G|------------------------------------------------------|
D|------------------------------------------------------|
A|----8-7-----8-7-----9--10--9-10-9------9--10--9-10-9--|
E|-0-------0-------0------------------0-----------------|


bridge:
    t   t   t   t
E|--------------------------------|
B|--------------------------------|
G|-11--12--11--10-----------------|
D|--9--10---9---8-----------------|
A|--------------------------------|
E|--------------------------------|

finish:
E|--------------------------------|
B|--------------------------------|
G|--------------------------------|
D|-9------------------------------|
A|-7------------------------------|
E|-0------------------------------|
Tap to rate this tab
 
# A B C D E F G H I J K L M N O P Q R S T U V W X Y Z