Song name
# A B C D E F G H I J K L M N O P Q R S T U V W X Y Z

Hatebreed - Hollow Ground tab

Hatebreed-hollow ground


Tune down two whole steps. Play using power chords. PM = Palm Muting 


Main riff - "ask yourself what's truly yours in life!" 
|---------------------------------------------|| 
|---------------------------------------------|| 
|---------------------------------------------|| 
|---------------------------------------------|| 
|---------------------------------------------|| 
|-0-0-4---0-0-0-3--1-0----0-0-4---0-0-0-3--1-0|| 
PM.... .... ... ..... 

Second part - "will you fight to take your life back!" 
|-----------------------------|| 
|-----------------------------|| 
|-----------------------------|| 
|-----------------------------|| 
|-----------------------------|| 
|-1-0-0-1-0-0-1-0-0-1-0-0-3--3|| 
PM... ... ... ... 

Third part 
|------------------------------------------------------------------------|| 
|------------------------------------------------------------------------|| 
|------------------------------------------------------------------------|| 
|------------------------------------------------------------------------|| 
|------------------------------------------------------------------------|| 
|-1-000-0---0-1-0-1-000-0---0-1-0-1-000-0---0-1-0-1-000-0---0-4-0-5-000-0|| 
PM... ... ... ... ... 

"The foundation of our lives..." 
|---------------------------------|| 
|---------------------------------|| 
|---------------------------------|| 
|---------------------------------|| 
|---------------------------------|| 
|-7---10---5-6-3--0-7---10---5-6-3|| 
(tab is 10, not 1 and 0.)
Tap to rate this tab
 
# A B C D E F G H I J K L M N O P Q R S T U V W X Y Z