Song name
# A B C D E F G H I J K L M N O P Q R S T U V W X Y Z

Hatebreed - Severed tab

Band- Hatebreed
Song- Severed

Tuning C G C F A D (Drop D)

------------------------------------------------------------------------------|
------------------------------------------------------------------------------|
------------------------------------------------------------------------------|
------------------------------------------------------------------------------|
------------------------------------------------------------------------------|
-3-000-3-00-3-0-321-3-000-3-00-3-0-321-3-000-3-00-3-0-321-3-000-3-00-3-0-321--|
 ^ 1st guitar heavily distorted

------------------------------------------------------------------------------|
------------------------------------------------------------------------------|
------------------------------------------------------------------------------|
------------------------------------------------------------------------------|
------------------------------------------------------------------------------|
----------------321-3--------------321-3-----3----3---321-3-----3----3---321--|
 ^ 2nd guitar heavily distorted

------------------------------------------------------------------------------|
------------------------------------------------------------------------------|
------------------------------------------------------------------------------|
------------------------------------------------------------------------------|
-3-000-3-00-3-0-321-----------------------------------------------------------|
-3-000-3-00-3-0-321-----------------------------------------------------------|
 ^heavily distorted (x8)

-------------------------------------------|-----------------|----------------|
-------------------------------------------|-----------------|----------------|
-------------------------------------------|-----------------|----------------|
-------------------------------------------|-----------------|----------------|
-0000-1-0000-1-00001--5-3-1-3-1-0----------|-----------------|-5-3-1-3-1-0----|
-0000-1-0000-1-00001--5-3-1-3-1-0----------|-5-3-1-3-1-0-----|-5-3-1-3-1-0----|
 ^both guitars heavily distorted (x3.75)                 (x4)            (x8)

------------------------------------------------------------------------------|
------------------------------------------------------------------------------|
------------------------------------------------------------------------------|
------------------------------------------------------------------------------|
------------------------------------------------------------------------------|
------------------------------------------------------------------------------|
 ^^^^^^^^^^^^^^^^^^^^^^^^^^^^^^^^repeat all^^^^^^^^^^^^^^^^^^^^^^^^^^^^^^^^^^
Tap to rate this tab
# A B C D E F G H I J K L M N O P Q R S T U V W X Y Z