Song name
# A B C D E F G H I J K L M N O P Q R S T U V W X Y Z

Hatebreed - Doomsayer tab

Doomsayer - Hatebreed
Ok pretty easy song.This is sure to be 100% right (im that confident) lol
Tuning is down two whole steps.
PM = .
~ = small vibrato

Riff One
E-----------------------------------------------------------------|
B-----------------------------------------------------------------|
G-----------------------------------------------------------------|
D-----------------------------------------------------------------|
A-------------------11-8-11-12------------------------10-7-10-11--|
E-0-0-0-0-0-0----------------------0-0-0-0-0-0--------------------|
PM. . . . . .                      . . . . . .

    RIFF Two      Defeated
e-----------------------------------------------------------------|
b-----------------------------------------------------------------|
g-----------------------------------------------------------------|
d---------------------------------------6---5--3------------------|
a-------------2----------------5--------4--3--1-------------------|
e-0-0-0-0-0-0-0----0-0-0-0-0-0-3--0-------------------------------|
PM. . . . . .      . . . . . .    .

    RIFF Three
E-------------------------------------------------------------------|
B-------------------------------------------------------------------|
G-------------------------------------------------------------------|
D-------------------------------------------------------------------|
A------------------0------------------------------------------------|
E-0-0-0-0-0-0-0----0-0-0-0-0-0-0-0-0-0------------------------------|
  . . . . . . .      . . . . . . . . .

    RIFF Four      You will respect
E----------------------------------------------------------------|
B----------------------------------------------------------------|
G----------------------------------------------------------------|
D----------------------------------------------------------------|
A-----------------5----------------8----------------7--10--------|
E----3-3-3-3-3-3--3---6-6-6-6-6-6--6---5-5-5-5-5-5--5--8---------|
     . . . . . .      . . . . . .      . . . . . .

    RIFF Five
E---------------------------------------------------------------|
B---------------------------------------------------------------|
G---------------------------------------------------------------|
D---------------------------------------------------------------|
A-2-2--5-2-5--2-2-2-2-2--5-2-5-5--------------2-----------------|
E-0-0--3-0-3--0-0-0-0-0--3-0-3-3-------------(0)----------------|
  . .         . . . . .

    RIFF Six
E------------------------------------------------------------------------|
B------------------------------------------------------------------------|
G------------------------------------------------------------------------|
D------------------------------------------------------------------------|
A---2-2---2--2--------------------2-2-3-6-5---------2~-------------------|
E---0-0---0--0--0-0-0-0-0-0-0-----0-0-1-4-3---------0--------------------|
    . .   .  .  . . . . . . .
Tap to rate this tab
# A B C D E F G H I J K L M N O P Q R S T U V W X Y Z