Song name
# A B C D E F G H I J K L M N O P Q R S T U V W X Y Z

Hatebreed - A Call For Blood tab

Hatebreed - A Call For Blood
Ok intermediate song i would say.Im confident in this tab i really am.
If you have any problems with it just comment on it and post corrections.

Tuning:C,G,C,F,A,D


   Starting Riff (x5)  Riff One
D----------------------------------------------------------------------|
A----------------------------------------------------------------------|
F----------------------------------------------------------------------|
C--3-0-5-6-------------------12--11--8-------------------12--11-14--15-|
G--3-0-5-6---0-0-0-0-0-0-0-0-12--11--8---0-0-0-0-0-0-0-0-12--11-14--15-|
C--3-0-5-6---0-0-0-0-0-0-0-0-12--11--8---0-0-0-0-0-0-0-0-12--11-14--15-|
             PM. . . . . . .             PM. . . . . . .


D----------------------------------------------------------------|
A----------------------------------------------------------------|
F----------------------------------------------------------------|
C------------------12--11—-8--------------------3-0-5-6----|
G--0-0-0-0-0-0-0-0-12--11—-8----0-0-0-0-0-0-0-0-3-0-5-6----|
C--0-0-0-0-0-0-0-0-12--11—-8----0-0-0-0-0-0-0-0-3-0-5-6----|
   PM. . . . . . .              PM. . . . . . .

RIFF 2  X 4 times

D---------------------------------------------------------------|
A---------------------------------------------------------------|
F---------------------------------------------------------------|
C--0-------7--6--3----0-------12-11-14-15-------------7--6--3---|
G--0-0-0-0-7--6--3----0-0-0-0-12-11-14-15-----0-0-0-0-7--6--3---|
C--0-0-0-0-7--6--3----0-0-0-0-12-11-14-15-----0-0-0-0-7--6--3---|
   PM. . .              . . .                 . . . .

D-------------------|
A-------------------|
F-------------------|
C--0-0-0-0-3-0-5-6--|
G--0-0-0-0-3-0-5-6--|
C--0-0-0-0-3-0-5-6--|
   PM. . .

Pre Chorus and chorus are the same
(x3/x2)

D------------------------------------------------------------------------|
A------------------------------------------------------------------------|
F------------------------------------------------------------------------|
C-0-0---3-1----------3-5-1----0-----3-1----------------------------------|
G-0-0-0-3-1-0--0-0-0-3-5-1----0-0-0-3-1-0--0-0-0-0-0-0-0-0-0-0-0-0-0-0-0-|
C-0-0-0-3-1-0--0-0-0-3-5-1----0-0-0-3-1-0--0-0-0-0-0-0-0-0-0-0-0-0-0-0-0-|
 .  . .        . . .          . . .     .  . . . . . . . . . . . . . . .


Now repeat Riff 1(X4) Riff 2(X4) and chorus with pre-chorus(X3) another time as well.

Then Ending 1

A---------------------------------------------|----|
F---------------------------------------------|----|
C--0--3---5-6-0--3---5-6-0--3---5-6-0--3---5-6|-0--|
G--0--3-0-5-6-0--3-0-5-6-0--3-0-5-6-0--3-0-5-6|-0--|
C--0--3-0-5-6-0--3-0-5-6-0--3-0-5-6-0--3-0-5-6|-0--|
After a few seconds then Ending two.

Ending 2 x6

D------------------------------------------|-------|
A------------------------------------------|-------|
F------------------------------------------|-------|
C--3-3-0----3-3-0----3-3-0----3-3-5-6-3-1--|--0----|
G--3-3-0----3-3-0----3-3-0----3-3-5-6-3-1--|--0----|
C--3-3-0----3-3-0----3-3-0----3-3-5-6-3-1--|--0----|
  PM...    PM...    PM ..    PM...

Legend : PM = palm mute
Thats it..i will admit the palm mutes are scattered out,but they are very noticeble 
they are at...dont chew me out for it lol.
Tap to rate this tab
# A B C D E F G H I J K L M N O P Q R S T U V W X Y Z