Song name
# A B C D E F G H I J K L M N O P Q R S T U V W X Y Z

Hatebreed - Mark My Words tab

Mark My Words - Hatebreed
CGCFAD Tuning.
Easy song really.Hope you like it.
"I was so blind..."
1||-----------------|-----------------|-----------------|-----------------||
2||-----------------|-----------------|-----------------|-----------------||
3||-----------------|-----------------|-----------------|-----------------||
4||-1---------------|-5-------8-------|-7---------------|-----------------||
5||-1---------------|-5-------8-------|-7---------------|-3-------5-------||
6||-----------------|-----------------|-----------------|-3-------5-------||

   Chorus        Slower ending
1||-----------------|----------------|------------------|-----------------|
2||-----------------|----------------|------------------|-----------------|
3||-----------------|----------------|------------------|-----------------|
4||-0-----------------3-----------------------------------6--5--3---------|
5||-0---------------|-3--------------|------------------|-6--5--3---------|
6||-0---------------|-3--------------|-0000000000000000-|-6--5--3---------|

   Slower Ending    "Mark My Words"
1||-----------------------------------------------------------------|
2||-----------------------------------------------------------------|
3||-----------------------------------------------------------------|
4||-6--5-----3---3-----0---------1---0---3---0-----6---5---3---5----|
5||-6--5-----3---3-----0---------1---0---3---0-----6---5---3---5----|
6||-6--5--0--3---3-----0---------1---0---3---0-----6---5---3---5----|
Tap to rate this tab
# A B C D E F G H I J K L M N O P Q R S T U V W X Y Z