Song name
# A B C D E F G H I J K L M N O P Q R S T U V W X Y Z

Hatebreed - Last Breath tab

Dylan - ZakkAtttakkk@aol.com
St.Angarrr- Whiplash2343@aol.com

Ok so i tried posting this on my other name.Didn't work
but i noticed other people really suck as far
as making a right tab for this.This is pretty much
the easiest song ever.I hate how people keep getting it wrong.
Anyhow
Tuning C'G'C'F'A'D
Riff 1.
E---------------------|
B---------------------|
G---------------------|
D---------------------|
A-0--4-3--0--3-4--0-3-|
E-0--4-3--0--3-4--0-3-| Repeat this 4 times (i believe)

Then riff two allow extra time between strokes.
E---------------------|
B---------------------|
G---------------------|
D-0--4-3--0--3-4--0-3-|
A-0--4-3--0--3-4--0-3-|
E-0--4-3--0--3-4--0-3-|

Riff 3.
Listen closely,you can hear a higher
note after the first break.
                      ____V____
E-----------------------------------|
B-----------------------------------|
G-----------------------------------|
D-----------------------------------|
A-2-0-0-3-0-0-0-0---2-0-0-4-0-0-0-0-|
E-2-0-0-3-0-0-0-0---2-0-0-4-0-0-0-0-|  Repeat 3 times.
                      ____^_____

Fill for riff 3.
E---------------------|
B---------------------|
G---------------------|
D---------------------|
A---------------------|
E-3333-2222-1111-0000-|

Thats it.Very easy song.Enjoy!
Tap to rate this tab
# A B C D E F G H I J K L M N O P Q R S T U V W X Y Z