Song name
# A B C D E F G H I J K L M N O P Q R S T U V W X Y Z

Hatebreed - Perseverance tab

Song:   Perseverance
Artist: Hatebreed
Album:  Perseverance
Tuning: Drop C (C,G,C,F,A,D)

Intro (X1) Guitar 1/2
d---------------------------|
a---------------------------|
f------------5-7-8----------|
c--1-0-0-0-0-5-7-8-0--------|
g--1-0-0-0-0-3-5-6-0--------|
C--1-0-0-0-0-------0--------|
     * * * *

Verse (X4) Guitar 1/2
d----------------------------------------------|
a----------------------------------------------|
f----------------------------------------------|
c----------------------------------------------|
g--8-7~~~-0-0--4-1-0~~~-7-6~~~-0-0--3-1-0~~~---|
C--8-7~~~-0-0--4-1-0~~~-7-6~~~-0-0--3-1-0~~~---|
          *                    *

Chorus (X2) Guitar 1/2
d-----------------------------------------------------------------|
a-----------------------------------------------------------------|
f-----------------------------------------------------5-7-8-------|
c-----------------------------------------------------5-7-8-------|
g-1-0-0--1-0-0--1-0-0--1-0-0--1-0-0--1-0-0--1-0-0-0-0-3-5-6-------|
C-1-0-0--1-0-0--1-0-0--1-0-0--1-0-0--1-0-0--1-0-0-0-0-------------|
    * *    * *    * *    * *    * *    * *    * * * *

Chorus-Third Time (X1)Guitar 1
d-----------------------------------------------------------------|
a-----------------------------------------------------------------|
f-------------------------------------------------------5-7-8-----|
c-------------------------------------------------------5-7-8-----|
g-1-0-0--1-0-0--1-0-0--1-0-0--0-0-0-0-0-0-0-0-0-0-0-0-0-3-5-6-----|
C-1-0-0--1-0-0--1-0-0--1-0-0--0-0-0-0-0-0-0-0-0-0-0-0-0-----------|
    * *    * *    * *    * *  * * * * * * * * * * * * *

Chorus-Third Time (X1)Guitar 2
d-----------------------------------------------------------------|
a-----------------------------------------------------------------|
f-------------------------------------------------------5-7-8-----|
c-0~~~~~~~~---------------------------------------------5-7-8-----|
g-0~~~~~~~~-------------------0-0-0-0-0-0-0-0-0-0-0-0-0-3-5-6-----|
C-0~~~~~~~~-------------------0-0-0-0-0-0-0-0-0-0-0-0-0-----------|
                              * * * * * * * * * * * * *

Chorus (X4) Guitar 1/2
d-----------------------------------------------------------------|
a-----------------------------------------------------------------|
f-----------------------------------------------------5-7-8-------|
c-----------------------------------------------------5-7-8-------|
g-1-0-0--1-0-0--1-0-0--1-0-0--1-0-0--1-0-0--1-0-0-0-0-3-5-6-------|
C-1-0-0--1-0-0--1-0-0--1-0-0--1-0-0--1-0-0--1-0-0-0-0-------------|
    * *    * *    * *    * *    * *    * *    * * * *

Verse (X4) Guitar 1/2
d----------------------------------------------|
a----------------------------------------------|
f----------------------------------------------|
c----------------------------------------------|
g--8-7~~~-0-0--4-1-0~~~-7-6~~~-0-0--3-1-0~~~---|
C--8-7~~~-0-0--4-1-0~~~-7-6~~~-0-0--3-1-0~~~---|
          *                    *

Chorus (X2) Guitar 1/2
d-----------------------------------------------------------------|
a-----------------------------------------------------------------|
f-----------------------------------------------------5-7-8-------|
c-----------------------------------------------------5-7-8-------|
g-1-0-0--1-0-0--1-0-0--1-0-0--1-0-0--1-0-0--1-0-0-0-0-3-5-6-------|
C-1-0-0--1-0-0--1-0-0--1-0-0--1-0-0--1-0-0--1-0-0-0-0-------------|
    * *    * *    * *    * *    * *    * *    * * * *

Chorus-Third Time (X1)Guitar 1/2
d-----------------------------------------------------------------|
a-----------------------------------------------------------------|
f-------------------------------------------------------5-7-8-----|
c-0~~0~~0~~0~~------------------------------------------5-7-8-----|
g-0~~0~~0~~0~~----------------0-0-0-0-0-0-0-0-0-0-0-0-0-3-5-6-----|
C-0~~0~~0~~0~~----------------0-0-0-0-0-0-0-0-0-0-0-0-0-----------|
                              * * * * * * * * * * * * *

Chorus (X4) Guitar 1/2
d-----------------------------------------------------------------|
a-----------------------------------------------------------------|
f-----------------------------------------------------5-7-8-------|
c-----------------------------------------------------5-7-8-------|
g-1-0-0--1-0-0--1-0-0--1-0-0--1-0-0--1-0-0--1-0-0-0-0-3-5-6-------|
C-1-0-0--1-0-0--1-0-0--1-0-0--1-0-0--1-0-0--1-0-0-0-0-------------|
    * *    * *    * *    * *    * *    * *    * * * *
Tap to rate this tab
# A B C D E F G H I J K L M N O P Q R S T U V W X Y Z