Song name
# A B C D E F G H I J K L M N O P Q R S T U V W X Y Z

Hatebreed - To The Threshold tab

-------------------------------------------------------------------------------
			     To The Threshold - HATEBREED
-------------------------------------------------------------------------------
Tabbed by: Marshal
Email: mechanical_animal66@hotmail.com

Tuning: DROP C

   INTRO/FILL
e|---------------------------------------------------------------------------|
B|---------------------------------------------------------------------------|
G|---------------------------------------------------------------------------|
D|-------------------0-------------------------------------------------------|
A|-111-00-444-33-0~--0-------------------------------------------------------|
E|-111-00-444-33-0~--0-------------------------------------------------------|
   ... .. ... .. 

  RIFF 1
e|---------------------------------------------------------------------------|
B|---------------------------------------------------------------------------|
G|---------------------------------------------------------------------------|
D|------------------------------------------8-8------------------------------|
A|-----031000-----031000-----031000---------6-6------------------------------|
E|-000-031000-000-031000-000-031000-00000000-0-------------------------------|
   ... ...... ... ...... ... ...... ........ .


  RIFF 1 VARIATION

e|---------------------------------------------------------------------------|
B|---------------------------------------------------------------------------|
G|---------------------------------------------------------------------------|
D|----------------------------------------7-11-10-8-7------------------------|
A|-----031000-----031000-----031000-------5-9--8--6-5------------------------|
E|-000-031000-000-031000-000-031000-000000-----------------------------------|
   ... ...... ... ...... ... ...... ......

  RIFF 2                     RIFF 3

e|---------------------------------------------------------------------------|
B|---------------------------------------------------------------------------|
G|---------------------------------------------------------------------------|
D|---------------------------------------------------------------------------|
A|-333-2-0--0-4-0-4-0-3-0-1--------------------------------------------------|
E|-333-2-0--0-4-0-4-0-3-0-1--0-3-5-6--0-3-5-3-4-3-0--------------------------|
   ... .    .   .   .   .

RIFF 4

e|---------------------------------------------------------------------------|
B|---------------------------------------------------------------------------|
G|---------------------------------------------------------------------------|
D|---------------------------------------------------------------------------|
A|---------------------------------------------------------------------------|
E|-0-3-5-6~-0-3-5-0~---------------------------------------------------------|
Tap to rate this tab
# A B C D E F G H I J K L M N O P Q R S T U V W X Y Z