Song name
# A B C D E F G H I J K L M N O P Q R S T U V W X Y Z

Hatebreed - Most Truth tab

-------------------------------------------------------------------------------
			     The Most Truth - HATEBREED
-------------------------------------------------------------------------------
Tabbed by: Marshal
Email: mechanical_animal66@hotmail.com

Tuning: DROP C

The palm-muted notes in the breakdown are triplets, and the bends are very slight.

  RIFF 1

e|------------------------------|
B|------------------------------|
G|------------------------------|
D|------------------------------|
A|-----5p1--5p1-5p1-4p1--4-1-3--|
E|-0000---00---0---o-----4-1-3--|
   ....   ..   .   .

   RIFF 2                BREAKDOWN

e|----------------------------------------------|
B|----------------------------------------------|
G|----------------------------------------------|
D|-3-6-7-6-3-3-3-3-6-6--------------------------|
A|-1-4-5-4-1-1-1-1-4-4--------------------------|
E|----------0-0-0-0-0----110-110-110-003b-002b--|
            . . . . .    ... ... ...
Tap to rate this tab
 
# A B C D E F G H I J K L M N O P Q R S T U V W X Y Z