Song name
# A B C D E F G H I J K L M N O P Q R S T U V W X Y Z

Hatebreed - Mind Over All tab

-------------------------------------------------------------------------------
			     Mind Over All - HATEBREED
-------------------------------------------------------------------------------
Tabbed by: Marshal
Email: mechanical_animal66@hotmail.com

Tuning: DROP C

   RIFF 1       RIFF 2
e|---------------------------------------------------------------------------|
B|---------------------------------------------------------------------------|
G|---------------------------------------------------------------------------|
D|-639863-------0-----------3------------------------------------------------|
A|-639863-------0-00000-00003-00-7p6-7p6-------------------------------------|
E|-639863-------0-00000-00003-00-7p6-7p6-------------------------------------|
                . ....  ....  ..

   FILL                BREAKDOWN
e|---------------------------------------------------------------------------|
B|---------------------------------------------------------------------------|
G|---------------------------------------------------------------------------|
D|-0~-0~-0~-0~---------6/5/6---0----4---0----3-------------------------------|
A|-0~-0~-0~-0~-0000----4/3/400-0-00-4-0-0-00-3-00----------------------------|
E|-0~-0~-0~-0~-0000---------00-0-00-4-0-0-00-3-00----------------------------|
               ....         ..   ..   .   ..   ..
Tap to rate this tab
# A B C D E F G H I J K L M N O P Q R S T U V W X Y Z