Song name
# A B C D E F G H I J K L M N O P Q R S T U V W X Y Z

Hatebreed - As Damaged As Me tab

-------------------------------------------------------------------------------
			     AS DAMAGED AS ME - HATEBREED
-------------------------------------------------------------------------------
Tabbed by: Marshal
Email: mechanical_animal66@hotmail.com

Tuning:Drop C

Have fun guys.

RIFF 1

e|---------------------------------------------------------------------------|
B|---------------------------------------------------------------------------|
G|---------------------------------------------------------------------------|
D|---------------------------------------------------------------------------|
A|-365030-365030-365030-763632-----------------------------------------------|
E|-365030-365030-365030-763632-----------------------------------------------|

RIFF 2

e|---------------------------------------------------------------------------|
B|---------------------------------------------------------------------------|
G|---------------------------------------------------------------------------|
D|---------------------------------------------------------------------------|
A|-3--3/4--4/12--4/11-3333---------------------------------------------------|
E|-3--3/4--4/12--4/11-3333---------------------------------------------------|
                      ....

RIFF 3                          FILL 1

e|---------------------------------------------------------------------------|
B|---------------------------------------------------------------------------|
G|---------------------------------------------------------------------------|
D|-10/7----------------------------------------------------------------------|
A|--8/5----8/5----7/3--------------------------------------------------------|
E|-----00008/500007/300000000---1414141212121212-11111188888-77744444--------|
       ....   ....   ........    . . . . . . . .  . . ...... ........

RIFF 4                          RIFF 5

e|---------------------------------------------------------------------------|
B|---------------------------------------------------------------------------|
G|---------------------------------------------------------------------------|
D|---------------------------------------------------------------------------|
A|--------5h8---4h7---3665-------------5h8---4h7---3h6p3h6p3-2h5p2h5p2-------|
E|-000-000---000---000----------000-000---000---000--------------------------|
   ... ...   ...   ...          ... ...   ...   ...

ENDING

e|---------------------------------------------------------------------------|
B|---------------------------------------------------------------------------|
G|---------------------------------------------------------------------------|
D|---------------------------------------------------------------------------|
A|-0-1-1-0-------------------------------------------------------------------|
E|-0-1-1-0-------------------------------------------------------------------|
Tap to rate this tab
# A B C D E F G H I J K L M N O P Q R S T U V W X Y Z